Oops, an error
Loading. Please wait.

These Are The Nights Tab

version 2
version 2

Whole song

10,222 views 1 this week
1 commentread comment
1 2 3 4 5
excellent!
x 5
add to favorites
launch autoscroll
font size
0
reset
how to read this tab
guitar tuner
Tab Pro tools
  • play this tab
  • loop segment
  • change instrument
  • show fretboard
  • metronome
×
Best way to learn
"These Are The Nights"
Autoscroll
slow
fast
+/-
esc
set tempo
stop
Contributor
This song, from what i heard, would be played as E-Flat tuning, but really ive played it 
regular Standard Tuning and it works just Dandy.

Making April
These are the Nights
From "Runaway World"

Tuning- Standard or E flat, whatever sounds better to you.

Just play the chords repetedly, its not that hard to figure out the strumming.

VERSE1:

      Our bodies to hand with the...      Connecting the tide to the sand...
e|----------3------------------3------------------3------------------3-------|
B|----------1------------------1------------------1------------------1-------|
G|----------0------------------0------------------0------------------0-------|
D|----------X------------------X------------------0------------------0-------|
A|----------3------------------3------------------X------------------X-------|
E|----------X------------------X------------------3------------------3-------|

           Both laid entwined...                 Clouds over head but....
e|----------0------------------0------------------3------------------3-------|
B|----------1------------------1------------------1------------------1-------|
G|----------2------------------2------------------0------------------0-------|
D|----------2------------------2------------------3------------------3-------|
A|----------0------------------0------------------X------------------X-------|
E|----------X------------------x------------------X------------------X-------|

      Then and there the wind....              Heaven was jealous to....
e|----------3------------------3------------------3------------------3-------|
B|----------1------------------1------------------1------------------1-------|
G|----------0------------------0------------------0------------------0-------|
D|----------X------------------X------------------0------------------0-------|
A|----------3------------------3------------------X------------------X-------|
E|----------X------------------X------------------3------------------3-------|

      You and all i need now is...               moon to keep light in...
e|----------0------------------0------------------3------------------3-------|
B|----------1------------------1------------------1------------------1-------|
G|----------2------------------2------------------0------------------0-------|
D|----------2------------------2------------------3------------------3-------|
A|----------0------------------0------------------X------------------X-------|
E|----------X------------------x------------------X------------------X-------|

BRIDGE1:

                Good.................................cause
e|-------------X--------------X--------------X--------------X---|
B|-------------1--------------1--------------0--------------0---|
G|-------------0--------------0--------------0--------------0---|
D|-------------0--------------0--------------0--------------0---|
A|-------------X--------------X--------------X--------------X---|
E|-------------4--------------4--------------3--------------3---|

CHORUS: Goes in the same pattern as the Verse but starting with the Am

      These are the nights that....            couldnt have planned it....
e|----------0------------------0------------------3------------------3-------|
B|----------1------------------1------------------1------------------1-------|
G|----------2------------------2------------------0------------------0-------|
D|----------2------------------2------------------3------------------3-------|
A|----------0------------------0------------------X------------------X-------|
E|----------X------------------x------------------X------------------X-------|

          That your senses are....                Now..........and you
e|----------3------------------3------------------3------------------3-------|
B|----------1------------------1------------------1------------------1-------|
G|----------0------------------0------------------0------------------0-------|
D|----------X------------------X------------------0------------------0-------|
A|----------3------------------3------------------X------------------X-------|
E|----------X------------------X------------------3------------------3-------|

           Think to yourself now.....           Might of must stolen....
e|----------0------------------0------------------3------------------3-------|
B|----------1------------------1------------------1------------------1-------|
G|----------2------------------2------------------0------------------0-------|
D|----------2------------------2------------------3------------------3-------|
A|----------0------------------0------------------X------------------X-------|
E|----------X------------------x------------------X------------------X-------|

           That your senses...              Now....But their slipping...
e|----------3------------------3------------------3------------------3-------|
B|----------1------------------1------------------1------------------1-------|
G|----------0------------------0------------------0------------------0-------|
D|----------X------------------X------------------0------------------0-------|
A|----------3------------------3------------------X------------------X-------|
E|----------X------------------X------------------3------------------3-------|

BRIDGE2: It's kinda hard to get this down right, practice it a bit.

e|-----0-------3------3------0-------0----3------3------3-----3-----3--------|
B|-----1-------1------1------1-------1----1------0------1-----3-----0--------|
G|-----2-------0------0------2-------0----0------0------0-----0-----0--------|
D|-----2-------0------3------2-------0----3------0------0-----0-----0--------|
A|-----0-------X------X------0-------X----X------X------X-----X-----X--------|
E|-----X-------3------X------X-------3----X------3------3-----3-----3--------|


Now Repeat the Verse with the same chord progression.
Same with the First Bridge, and Chorus.


Now, when the second Chorus ends at
"That your senses aren't failing you, Now"
It leads into the Ending, outro, or whatever you want to call it.

OUTRO: These may not be set to the best timing of the words.
Just kinda play it out.

       Noooooooooowwwwwww
e|-----3----3-----3----3------------3---3------3---3-----|
B|-----1----1-----1----1------------1---1------0---0-----|
G|-----0----0-----0----0------------0---0------0---0-----|
D|-----2----2-----3----3------------0---0------0---0-----|
A|-----X----X-----X----X------------X---X------X---X-----|
E|-----X----X-----X----X------------3---3------3---3-----|

       Noooooooooowwwwwwwww
e|-----3----3-----3----3------------3---3------3---3-----|
B|-----1----1-----1----1------------1---1------0---0-----|
G|-----0----0-----0----0------------0---0------0---0-----|
D|-----2----2-----3----3------------0---0------0---0-----|
A|-----X----X-----X----X------------X---X------X---X-----|
E|-----X----X-----X----X------------3---3------3---3-----|


       You could....                  this...... so
e|-----3----3-----3----3------------3---3------3---3-----|
B|-----1----1-----1----1------------1---1------0---0-----|
G|-----0----0-----0----0------------0---0------0---0-----|
D|-----2----2-----3----3------------0---0------0---0-----|
A|-----X----X-----X----X------------X---X------X---X-----|
E|-----X----X-----X----X------------3---3------3---3-----|

   Empty your thoughts and open your heart to the bliss
e|-----3----3-----3----3------------3---3------3---3-----|
B|-----1----1-----1----1------------1---1------0---0-----|
G|-----0----0-----0----0------------0---0------0---0-----|
D|-----2----2-----3----3------------0---0------0---0-----|
A|-----X----X-----X----X------------X---X------X---X-----|
E|-----X----X-----X----X------------3---3------3---3-----|

    These are the nights........ these are the nights
e|-----3----3-----3----3------------3---3------3---3-----|
B|-----1----1-----1----1------------1---1------0---0-----|
G|-----0----0-----0----0------------0---0------0---0-----|
D|-----2----2-----3----3------------0---0------0---0-----|
A|-----X----X-----X----X------------X---X------X---X-----|
E|-----X----X-----X----X------------3---3------3---3-----|

These are the nights........... these are the nights...
e|-----3----3-----3----3------------3---3------3---3--------x---|
B|-----1----1-----1----1------------1---1------1---1--------1---|
G|-----0----0-----0----0------------0---0------0---0--------0---|
D|-----2----2-----3----3------------0---0------0---0--------2---|
A|-----X----X-----X----X------------X---X------X---X--------3---|
E|-----X----X-----X----X------------3---3------3---3--------X---|

and then end on that chord.


Its a good song. enjoy.



| /  slide up
| \  slide down
| h  hammer-on
| p  pull-off
| ~  vibrato
| +  harmonic
| x  Mute note
===============================================================================
comments
print report bad tab
1 comment total.
0 reply
achunkymonkey8u wrote on July 13 2008, 05:25 pm

Great tab! Thanks a lot for this

I want to post or [tab]
guest
You may want to rate the tab now too:
select rating
Please do not post tabs as comments. Select "correction" instead!