Oops, an error
Loading. Please wait.

Our Story tab

by Mako
646 views 3 this week
1 commentread comment
1 2 3 4 5
x 5
add to favorites
×
Save as Personal and add changes to this tab that will be seen only by you. Learn more ›
×
You can save this tab as Personal to edit and correct it or add notes. All changes will be seen only by you. Learn more »
launch autoscroll
font size
0
reset
how to read this tab
guitar tuner
edit
Autoscroll
slow
fast
+/-
esc
set tempo
stop
Link to the track: 
https://www.youtube.com/watch?v=awimSQD2Dyo

CAPO ON 1st

This tab is played throughout the entire song. At certain points the bass cuts out. The notes played on the
A string are no longer played. 

e||-------------------------------------------------------------------|| 
B||--5-----5----5----3-----3--7-----7--8-----8-----8----7----7-----7--||
G||-----0-----0---0-----0--------0--------0-----0----0----0-----0-----||
D||-------------------------------------------------------------------||
A||--3---------------2--------5--------7----------------5-------------||
E||-------------------------------------------------------------------||


For the 'Hourglass Finale' version (Link to the track below) only the last little part changes as follows: 

Edit: It alternates between the two tabs below. (Thank you nathg212 for pointing it out)
https://www.youtube.com/watch?v=2IO5sxpBcQg

e||-------------------------------------------------------------------|| 
B||--5-----5----5----3-----3--7-----7--8-----8-----8----3----3-----3--||
G||-----0-----0---0-----0--------0--------0-----0----0----0-----0-----||
D||-------------------------------------------------------------------||
A||--3---------------2--------5--------7----------------5-------------||
E||-------------------------------------------------------------------||

e||-------------------------------------------------------------------|| 
B||--5-----5----5----3-----3--7-----7--8-----8-----8----7----7-----7--||
G||-----0-----0---0-----0--------0--------0-----0----0----0-----0-----||
D||-------------------------------------------------------------------||
A||--3---------------2--------5--------7----------------5-------------||
E||-------------------------------------------------------------------||
Suggest correction
Creating personal tab
Creating personal tab
You can edit any tab online and save it as your Personal.

You can edit, replace or remove any tab part or add personal notes – all changes will be seen only by you.

Personal tabs can be accessed anytime from any device, even offline.
Learn more »
comments
print report bad tab
1 comment total.
0 reply
nathg212 20 Jan 10, 2017 05:53 PM

For the Hourglass Finale version I think they actually alternate between the two patterns you wrote down. It's
e||-------------------------------------------------------------------||
B||--5-----5----5----3-----3--7-----7--8-----8-----8----3----3-----3--||
G||-----0-----0---0-----0--------0--------0-----0----0----0-----0-----||
D||-------------------------------------------------------------------||
A||--3---------------2--------5--------7----------------5-------------||
E||-------------------------------------------------------------------||
followed by
e||-------------------------------------------------------------------||
B||--5-----5----5----3-----3--7-----7--8-----8-----8----7----7-----7--||
G||-----0-----0---0-----0--------0--------0-----0----0----0-----0-----||
D||-------------------------------------------------------------------||
A||--3---------------2--------5--------7----------------5-------------||
E||-------------------------------------------------------------------||

Awesome tab man! I've been looking for that one for a while now! :) thnks

guest
You may want to rate the tab now too:
select rating
Wanna post a correction for this tab? Suggest correction