Oops, an error
Loading. Please wait.

Piercing Light Tab

by Mako
55 views 1 this week
no commentswrite comment
1 2 3 4 5
3 more votes to show rating
add to favorites
launch autoscroll
font size
0
reset
how to read this tab
guitar tuner
Autoscroll
slow
fast
+/-
esc
set tempo
stop
Help us to improve Ultimate-Guitar.com Take our survey!
×
Author
Difficulty
novice
[Rhythm]
e|--------------------------------------------------------------|
B|--------------------------------------------------------------|
G|-3--3--3--3------2--2--2--2------2--2--2--2-----5--5--5--5----|
D|-5--5--5--5-2-3--3--3--3--3--2-5-3--3--3--3-3-5-5--5--5--5-3-2|
A|-5--5--5--5------5--5--5--5---------------------7--7--7--7----|
E|--------------------------------------------------------------|

e|--------------------------------------------------------------|
B|--------------------------------------------------------------|
G|-3--3--3--3------2--2--2--2------2--2--2--2-------------------|
D|-5--5--5--5-2-3--3--3--3--3--2-5-3--3--3--3-3-5-5--5--5--5----|
A|-5--5--5--5------5--5--5--5---------------------7--7--7--7----|
E|--------------------------------------------------------------|

e|--------------------------------------------------------------|
B|--------------------------------------------------------------|
G|-3--3--3--3------2--2--2--2------2--2--2--2-----5--5--5--5----|
D|-5--5--5--5-2-3--3--3--3--3--2-5-3--3--3--3-3-5-5--5--5--5-3-2|
A|-5--5--5--5------5--5--5--5---------------------7--7--7--7----|
E|--------------------------------------------------------------|

e|--------------------------------------------------------------|
B|--------------------------------------------------------------|
G|-3--3--3--3------2--2--2--2------2--2--2--2-------------------|
D|-5--5--5--5-2-3--3--3--3--3--2-5-3--3--3--3-3-5-5--5--5--5----|
A|-5--5--5--5------5--5--5--5---------------------7--7--7--7----|
E|--------------------------------------------------------------|

[Lead]
e|--------------------------------------------------------------|
B|--------------------------------------------------------------|
G|--------------------------------------------------------------|
D|-0--0--0--0-2-3--0--0--0--0--2-5-3--3--3--3-3-5-3--3--3--5-3-2|
A|--------------------------------------------------------------|
E|--------------------------------------------------------------|

[Background]
(This must be played with vibrato)
e|--------------------------------------------------------------|
B|--------------------------------------------------------------|
G|--7-------9/10-7-------------9/12-10--------10/12-10-----12---|
D|--------------------------------------------------------------|
A|--------------------------------------------------------------|
E|--------------------------------------------------------------|

[Main]
e|----------------------------------------------------------------------------|
B|--15-15-15-15-17b--15-15-15-15-17-20-18-18-18-18--18/20-18-18-20--20-18-17--|
G|----------------------------------------------------------------------------|
D|----------------------------------------------------------------------------|
A|----------------------------------------------------------------------------|
E|----------------------------------------------------------------------------| 

************************************

| b  Bend
| /  Slide up

************************************
Suggest correction
Give kudos to tab author, rate the tab!
1 2 3 4 5
comments
print report bad tab
guest
You may want to rate the tab now too:
select rating
Wanna post a correction for this tab? Suggest correction