Oops, an error
Loading. Please wait.

Smoke Filled Room tab

version 2
version 2

Whole song

by Mako
127 views 9 this week
no commentswrite comment
1 2 3 4 5
3 more votes to show rating
add to favorites
×
Save as Personal and add changes to this tab that will be seen only by you. Learn more ›
×
You can save this tab as Personal to edit and correct it or add notes. All changes will be seen only by you. Learn more »
launch autoscroll
font size
0
reset
how to read this tab
guitar tuner
edit
Autoscroll
slow
fast
+/-
esc
set tempo
stop
[Intro]
e|----------------------------------------------------------------------------|
B|-----------------0-----0----------------------------------------------------|
G|--------------0-------------------------------------------------------------|
D|--2-------4---2-----4-------------------------------------------------------|
A|--3---5---5---2-----5-------------------------------------------------------|
E|--3---3---5---0-----5-------------------------------------------------------|

[Verse]
e|----------------------------------------------------------------------------|
B|----------------------------------------0-3-0-------------------------------|
G|----0h2-2-----0-0h2-2------0h2-2--0-0--------------0-0h2-2------0-0h2-2-----|
D|-2----------------------4---------2-----4-------2---------------------------|
A|-3----------5-----------5---------2-----5-------3------------5--------------|
E|-3----------3-----------5---------0-------------3------------3--------------|

e|----------------------------------------------------------------------------|
B|----------------------------------------------------------------------------|
G|-----0-0h2-2--2--2-2h4p2-0--------------------------------------------------|
D|--4-----------2----0--------------------------------------------------------|
A|--5-----------2-------------------------------------------------------------|
E|--5-----------0-------------------------------------------------------------|

[Pre-Chorus]
e|----------------------------------------------------------------------------|
B|---------3-3-----------------------------------------------3-3--------------|
G|--0----0---------0-0----0h2-2----0h2-2-2-2-2h4p2-0--0----0---------0-0------|
D|------------------------------0--0-----2---0--------------------------------|
A|--3--3---------------------------------2------------3--3--------------------|
E|--------------3-------3-----------------------------------------3-------3---|

e|----------------------------------------------------------------------------|
B|----------------------------------------------------------------------------|
G|-0h2-2----0h2-2-2-2-2h4p2-0--0----------------------------------------------|
D|-------0--0-----2---0--------2----------------------------------------------|
A|----------------2------------3----------------------------------------------|
E|-----------------------------3----------------------------------------------|

[Chorus]
e|----------------------------------------------------------------------------|
B|------------0-3-0----------------------------------------0-3-0--------------|
G|---------2--0---0--2--0-0h2-2-2-2--2h4p2-0--0---------2--0---0--2--0-0h2-2--|
D|-2-2h4/5----2------4----------2----0--------2-2-2h4/5----2------4-----------|
A|------------3-----------------2-------------3------------3------------------|
E|------------3-------------------------------3------------3------------------|

e|----------------------------------------------------------------------------|
B|---------------------------0-3-0--------------------------------------------|
G|--2-2-2h4p2-0-0---------2--0---0--2----0--0h2-2-2-2-2h4p2-0-0------------2--|
D|--2---0-------2-2-2h4/5----2------4-------------2---0-------2--2--2h4/5-----|
A|--2-----------3---x--------x---x-----x----x-----x---x-------x-----x---x-----|
E|--------------3---x--------x---x-----x----x-----x---x-------x-----x---x-----|

                               o
e|----------------------------------------------------------------------------|
B|-0--3--0--------------------------------------------------------------------|
G|-0--0--0-----2-------0h2--2--2-2-2h4p2-0------------------------------------|
D|-2-----------4---------------2---0------------------------------------------|
A|-x--x--x--x-----x-x--x-----------x------------------------------------------|
E|-x--x--x--x-----x-x--x-----------x------------------------------------------|

[Breakdown]
e|----------------------------------------------------------------------------|
B|----------0--0-----0-3-0----------3-0---------0-----------------------------|
G|--------0-------2----------2-0-2-------2-0-2----2h4p2p0---------------------|
D|-2-0-2-------0-----0-------0---0-------2---2----0---------------------------|
A|-3---3----------------------------------------------------------------------|
E|-3---3-------3-----3--------------------------------------------------------|

e|----------------------------------------------------------------------------|
B|----------0--0-----0-3-0----------3-0---------0-----------------------------|
G|--------0-------2----------2-0-2-------2-0-2----2h4p2p0---------------------|
D|-2-0-2-------0-----0-------0---0-------2---2----0---------------------------|
A|-3---3----------------------------------------------------------------------|
E|-3---3-------3-----3--------------------------------------------------------|

e|----------------------------------------------------------------------------|
B|-----------0---0-----0--3--0-----------3-0---------0------------------------|
G|--------0--0------2-------------2-0-2-------2-0-2-----2h4p2p0---------------|
D|-2-0-2--2------0--0--0--0--0----0-0-0--0-0--2-2-2--2--0---------------------|
A|-3-3-3----------------------------------------------------------------------|
E|-3-3-3--3--3---3--3--3--3--3------------------------------------------------|

e|----------------------------------------------------------------------------|
B|-----------0---0-----0--3--0-----------3-0---------0------------------------|
G|--------0--0------2-------------2-0-2-------2-0-2-----2p0-0-----------------|
D|-2-0-2--2------0--0--0--0--0----0-0-0--0-0--2-2-2--2--0---------------------|
A|-3-3-3----------------------------------------------------------------------|
E|-3-3-3--3--3---3--3--3--3--3------------------------------------------------|

[Verse]
e|----------------------------------------------------------------------------|
B|----------------------------------------1p0---------------------------------|
G|----0h2-2-----0-0h2-2------0h2-2--0-0--------2-----0-0h2-2------0-0h2-2-----|
D|-2----------------------4---------2-----0-------2---------------------------|
A|-3----------5-----------5---------2-----0-------3------------5--------------|
E|-3----------3-----------5---------0-------------3------------3--------------|

e|----------------------------------------------------------------------------|
B|----------------------------------------------------------------------------|
G|-----0-0h2-2--2--2-2h4p2-0--------------------------------------------------|
D|--4-----------2----0--------------------------------------------------------|
A|--5-----------2-------------------------------------------------------------|
E|--5-----------0-------------------------------------------------------------|

[Pre-Chorus]
e|----------------------------------------------------------------------------|
B|---------3-3-----------------------------------------------3-3--------------|
G|--0----0---------0-0----0h2-2----0h2-2-2-2-2h4p2-0--0----0---------0-0------|
D|------------------------------0--0-----2---0--------------------------------|
A|--3--3---------------------------------2------------3--3--------------------|
E|--------------3-------3-----------------------------------------3-------3---|

e|----------------------------------------------------------------------------|
B|----------------------------------------------------------------------------|
G|-0h2-2----0h2-2-2-2-2h4p2-0-0-----------------------------------------------|
D|-------0--0-----2---0-------2-----------------------------------------------|
A|----------------2-----------3-----------------------------------------------|
E|----------------------------3-----------------------------------------------|

[Chorus]
e|----------------------------------------------------------------------------|
B|------------0-3-0----------------------------------------0-3-0--------------|
G|---------2--0---0--2--0-0h2-2-2-2--2h4p2-0--0---------2--0---0--2--0-0h2-2--|
D|-2-2h4/5----2------4----------2----0--------2-2-2h4/5----2------4-----------|
A|------------3-----------------2-------------3------------3------------------|
E|------------3-------------------------------3------------3------------------|

e|----------------------------------------------------------------------------|
B|---------------------------0-3-0--------------------------------------------|
G|--2-2-2h4p2-0-0---------2--0---0--2----0--0h2-2-2-2-2h4p2-0-0------------2--|
D|--2---0-------2-2-2h4/5----2------4-------------2---0-------2--2--2h4/5-----|
A|--2-----------3---x--------x---x-----x----x-----x---x-------x-----x---x-----|
E|--------------3---x--------x---x-----x----x-----x---x-------x-----x---x-----|

                               o
e|----------------------------------------------------------------------------|
B|-0--3--0--------------------------------------------------------------------|
G|-0--0--0-----2-------0h2--2--2-2-2h4p2-0------------------------------------|
D|-2-----------4---------------2---0------------------------------------------|
A|-x--x--x--x-----x-x--x-----------x------------------------------------------|
E|-x--x--x--x-----x-x--x-----------x------------------------------------------|

[Breakdown]
e|----------------------------------------------------------------------------|
B|----------0--0-----0-3-0----------3-0---------0-----------------------------|
G|--------0-------2----------2-0-2-------2-0-2----2h4p2p0---------------------|
D|-2-0-2-------0-----0-------0---0-------2---2----0---------------------------|
A|-3---3----------------------------------------------------------------------|
E|-3---3-------3-----3--------------------------------------------------------|

e|----------------------------------------------------------------------------|
B|----------0--0-----0-3-0----------3-0---------0-----------------------------|
G|--------0-------2----------2-0-2-------2-0-2----2h4p2p0---------------------|
D|-2-0-2-------0-----0-------0---0-------2---2----0---------------------------|
A|-3---3----------------------------------------------------------------------|
E|-3---3-------3-----3--------------------------------------------------------|

e|----------------------------------------------------------------------------|
B|-----------0---0-----0--3--0-----------3-0---------0------------------------|
G|--------0--0------2-------------2-0-2-------2-0-2-----2h4p2p0---------------|
D|-2-0-2--2------0--0--0--0--0----0-0-0--0-0--2-2-2--2--0---------------------|
A|-3-3-3----------------------------------------------------------------------|
E|-3-3-3--3--3---3--3--3--3--3------------------------------------------------|

e|----------------------------------------------------------------------------|
B|-----------0---0-----0--3--0-----------3-0---------0------------------------|
G|--------0--0------2-------------2-0-2-------2-0-2-----2p0-0-----------------|
D|-2-0-2--2------0--0--0--0--0----0-0-0--0-0--2-------------------------------|
A|-3-3-3----------------------------------------------------------------------|
E|-3-3-3--3--3---3--3--3--3--3------------------------------------------------|


************************************

| x   Dead not
| (n) Ghost note
| h   Hammer-on
| p   Pull-o
| /   Slide up
| \   Slide down
| o   Wrist thump

************************************
Suggest correction
Creating personal tab
Creating personal tab
You can edit any tab online and save it as your Personal.

You can edit, replace or remove any tab part or add personal notes – all changes will be seen only by you.

Personal tabs can be accessed anytime from any device, even offline.
Learn more »
Give kudos to tab author, rate the tab!
1 2 3 4 5
comments
print report bad tab
guest
You may want to rate the tab now too:
select rating
Wanna post a correction for this tab? Suggest correction