Oops, an error
Loading. Please wait.

Cruzando La Otra Vereda Tab

24 views 1 this week
no commentswrite comment
1 2 3 4 5
3 more votes to show rating
add to favorites
×
Save as Personal and add changes to this tab that will be seen only by you. Learn more ›
×
You can save this tab as Personal to edit and correct it or add notes. All changes will be seen only by you. Learn more »
save as personal
new!
launch autoscroll
font size
0
reset
how to read this tab
guitar tuner
Autoscroll
slow
fast
+/-
esc
set tempo
stop
INTRO
  F5          C5          D5          A5          A#5         G5         C5
  pm. . . .     . . . .     . . . .     . . . .     . . . .     . . . .
E/-------------------------------------------------------------------------
B/-------------------------------------------------------------------------
G/------------5-5-5-5--5--7-7-7-7--7--------------------------------------5
D/3-3-3-3--3--5-5-5-5--5--7-7-7-7--7--7-7-7-7--7--8-8-8-8--8--5-5-5-5--5--5
A/3-3-3-3--3--3-3-3-3--3--5-5-5-5--5--7-7-7-7--7--8-8-8-8--8--5-5-5-5--5--3
E/1-1-1-1--1--------------------------5-5-5-5--5--6-6-6-6--6--3-3-3-3--3---

Los versos son con los mismos acordes hasta que cambia a

E/-------------------------------------------------------------------------
B/-------------------------------------------------------------------------
G/--5-5-5-5--3--5--7-------------------5--------------5--3--5--7-----------
D/--5-5-5-5--3--5--7-------------------5--------------5--3--5--7-----------
A/--3-3-3-3--1--3--5-------------------3--------------3--1--3--5-----------
E/-------------------------------------------------------------------------
                   Te doy un consejo tomalo si queres        no porque este

E/-------------------------------------------------------------------------
B/-------------------------------------------------------------------------
G/--------5----------------7---------------------5----------------5--3--5--
D/--------5----------------7---------------------5----------------5--3--5--
A/--------3----------------5---------------------3----------------3--1--3--
E/-------------------------------------------------------------------------
  viejo sino porque vales,a mi no me lo dieron,o yo no lo escuche

E/------------------------------------------------------------------------
B/------------------------------------------------------------------------
G/7-------------------------5--------------------5------7-----------------
D/7-------------------------5----------------3---5------7----------7------
A/5-------------------------3----------------3---3------5----------7------
E/-------------------------------------------1---------------------5------
  hace lo que te guste mientras te de placer.Y sino quedate donde estas...


Solo:

E/---------------------------------------------12-13-12-13--12-13-12h13p12
B/-------5-----5-6--6-5----------8-6---10-11-8----------------------------
G/7-7/5----5-7-----7----5-5--7h9-----9------------------------------------
D/------------------------------------------------------------------------
A/------------------------------------------------------------------------
E/------------------------------------------------------------------------

E/10-12-13--17-15---------------------------------------------------------
B/----------------18-17-15-17-15----15--15h17-18-17-18-20b22-20--17----18-
G/-------------------------------17---------------------------------20----
D/------------------------------------------------------------------------
A/------------------------------------------------------------------------
E/------------------------------------------------------------------------

Final:

A# A G F

Aguante Mal de Parkinson
Suggest correction
Give kudos to tab author, rate the tab!
1 2 3 4 5
comments
print report bad tab
guest
Wanna post a correction for this tab? Suggest correction