Oops, an error
Loading. Please wait.

El Cantor Tab

10 views 1 this week
no commentswrite comment
1 2 3 4 5
3 more votes to show rating
add to favorites
launch autoscroll
font size
0
reset
how to read this tab
guitar tuner
×
Best way to learn
"El Cantor"
Autoscroll
slow
fast
+/-
esc
set tempo
stop
Esta es la versión en vivo del cd En la Fuga

Intro
e|--------------------------------------------------------------------10
B|---------------------------------7-8-10----8-7-8-7-10----8-7-8-7/10---
G|--------7-7-7-------7-6-9---7-----------------------------------------
D|------------------7---------------------------------------------------
A|----------------------------------------------------------------------
E|----------------------------------------------------------------------


e|---12-10-9-----10-9--12b14---12-10-9-----9-10-9-----|
B|-10---------10------------------------10--------10--|
G|----------------------------------------------------|
D|----------------------------------------------------|
A|----------------------------------------------------|
E|----------------------------------------------------|


Solo

     x9                                                     x8
e|-------|--------------------------10---------------------|---10---|
B|-------|------7-8-7--10-7---7-8-7----8-7-8-7-------------|---10---|
G|---7---|----7-------------7-------------------9b10r9--7--|--------|
D|-------|-------------------------------------------------|--------|
A|-------|-------------------------------------------------|--------|
E|-------|-------------------------------------------------|--------|


e|--9-10--9-10-12-10--9h10p9--------------10-------10-12-14-17-17b19|
B|---------------------------12--10-12-14----12-14------------------|
G|------------------------------------------------------------------|
D|------------------------------------------------------------------|
A|------------------------------------------------------------------|
E|------------------------------------------------------------------|

e|--17-14-12-10-----10--17------------------------------------------|
B|--------------10--10----------------------------------------------|
G|------------------------------------------------------------------|
D|------------------------------------------------------------------|
A|------------------------------------------------------------------|
E|------------------------------------------------------------------|
Suggest correction
Give kudos to tab author, rate the tab!
1 2 3 4 5
comments
print report bad tab
guest
You may want to rate the tab now too:
select rating
Wanna post a correction for this tab? Suggest correction