Oops, an error
Loading. Please wait.

Jesucristo Tab

25 views 1 this week
no commentswrite comment
1 2 3 4 5
3 more votes to show rating
add to favorites
launch autoscroll
font size
0
reset
how to read this tab
guitar tuner
×
Best way to learn
"Jesucristo"
Autoscroll
slow
fast
+/-
esc
set tempo
stop
   Intro:x2
e|----------------------------------------------------------------|
B|------------------------------------------------------3---------|
G|---------0----------0-----------------------------3-----------2-|
D|-----4-0---4----4-0-------7-5-9-7----7-5-9------3-----------2---|
A|---2----------2---------5----------5----------5-----------4-----|
E|-2--------------------5---------------------3-----------2-------|

  Punteo:
e|-------------------------------------------------------------------------
B|-----------7/5--5----------7-8-8/10-8-7------------------7-------------7-
G|--9^--7-9---------7-6-------------------9-7----------7-------------7-----
D|----------------------7-9----------------------9-7-9---9-----9-7-9---9---
A|-------------------------------------------------------------------------
E|-------------------------------------------------------------------------

e|-------------------------------------------||
B|------------10--8-7-7p8h7---7--------------||
G|--------7---------------------7------------||
D|--9-7-9---9---------------------7-9--------||
A|------------------------------------7-9----||
E|-------------------------------------------||

Acordes :
Bm     D       G     F#           Bm   D  G F#
Concreté la fecha de mi muerte con Satán.
Bm      D
Le engañé
 G       F#                   Bm       D   G F#
y ahora no hay quien me pare, ya los pies.
Bm    D
Razonar
G       F#            Bm     D   G F#
es siempre tan difícil para mí.
Bm      D
Qué más da
G          F#             Bm       D      G F#
si al final todo me sale siempre bien, del revés.

    G                D
Nací un buen día, mi madre no era virgen
     A               F#
no vino Menem, tampoco me importó
   G                       D
hago milagros, convierto el agua en vino
  A                 F#
me resucito si me hago un par de tiros.

    G               D
Soy Evaristo, el rey de la baraja
     A                  F#
vivo entre rejas, antes era chapista
     G                D
los mercaderes ocuparon mi templo
     A                F#
y me aplicaron ley antiterrorista.
  Bm    D    G    F#  Bm    D     G      F#
¿Cuánto más necesito para ser dios, dios, dios?
  Bm    D G  F#     Bm  D  G  F#
¿Cuánto más necesito convencer?
Bm    D    G    F#  Bm    D     G      F#
¿Cuánto más necesito para ser dios, dios, dios?
Bm    D G  F#     Bm  D  G  F#
¿Cuánto más necesito convencer?


Cualquier cosa:
agus4_rebi@
Suggest correction
Give kudos to tab author, rate the tab!
1 2 3 4 5
comments
print report bad tab
guest
You may want to rate the tab now too:
select rating
Wanna post a correction for this tab? Suggest correction