Oops, an error
Loading. Please wait.

Swept Away tab

100 views 1 this week
no commentswrite comment
1 2 3 4 5
3 more votes to show rating
add to favorites
×
Save as Personal and add changes to this tab that will be seen only by you. Learn more ›
×
You can save this tab as Personal to edit and correct it or add notes. All changes will be seen only by you. Learn more »
launch autoscroll
font size
0
reset
how to read this tab
guitar tuner
edit
Autoscroll
slow
fast
+/-
esc
set tempo
stop
Author
Difficulty
"Swept Away"
by Mal Eastick
from his 2000 album "Spirit", released on Bluefish Records

Tabbed by Jarrod G

Tempo: 125 BPM
Timing: 4/4

[Verse 1]
(0:00)
   Am                                        Dm
e|--------------------|--------------------|--------------------|--------------------|
B|--------------------|--------------6/8===|\6==============----|--------------------|
G|--------------------|--------------7/9===|\7==============-5--|-7=====-5-7-5-------|
D|--------------------|-------5===7--------|--------------------|--------------7-5---|
A|--------------------|-5h7===-------------|--------------------|--------------------|
E|-5==============-5--|--------------------|--------------------|--------------------|

   Am                                        Dm
e|--------------------|--------------------|--------------------|--------------------|
B|--------------------|--------------6/8===|\6==============----|--------------------|
G|--------------------|--------------7/9===|\7==============-5--|-7=====-5-7-5-------|
D|--------------------|-------5===7--------|--------------------|--------------7-5---|
A|--------------------|-5h7===-------------|--------------------|--------------------|
E|-5==============-5--|--------------------|--------------------|--------------------|

   Am                                        Dm
e|--------------------|--------------------|--------------------|--------------------|
B|--------------------|--------------6/8===|\6==============----|--------------------|
G|--------------------|--------------7/9===|\7==============-5--|-7=====-5-7-5-------|
D|--------------------|-------5===7--------|--------------------|--------------7-5---|
A|--------------------|-5h7===-------------|--------------------|--------------------|
E|-5==============-5--|--------------------|--------------------|--------------------|

   Am                                        Dm
e|--------------------|--------------------|--------------------|--------------------|
B|--------------------|--------------6/8===|\6==============----|--------------------|
G|--------------------|--------------7/9===|\7==============-5--|-7=====-5-7-5-------|
D|--------------------|-------5===7--------|--------------------|--------------7-5---|
A|--------------------|-5h7===-------------|--------------------|--------------------|
E|-5==============-5--|--------------------|--------------------|--------------------|

[Chorus 1]
(0:31)
   F                                         Em
e|------------------0=|=====-3===----------|--------------------|--------------------|
B|----------1=========|==========----------|--------------------|--------------------|
G|---2================|==========----------|--------------------|--------------------|
D|-3=====-3===========|===-3=====-3-3/7===-|-5~~~~~~~~~~~~~~~~~-|--------------------|
A|--------------------|--------------------|--------------------|-0h2=-0h2=-0--2p0---|
E|--------------------|--------------------|--------------------|------------------3-|

   F                                         Em
e|------------------0=|=====-3===----------|--------------------|--------------------|
B|----------1=========|==========----------|--------------------|--------------------|
G|---2================|==========----------|--------------------|--------------------|
D|-3=====-3======-3===|===-3=====-3-3/7===-|-5~~~~~~~~~~~~~-2-0-|-2~~~~~~~~~~~~~~~~~-|
A|--------------------|--------------------|--------------------|--------------------|
E|--------------------|--------------------|--------------------|--------------------|

   F                                         Em
e|------------------0=|=====-3===----------|-------------------------|--------------------|
B|----------1=========|==========----------|--------3==----5==-------|--------------------|
G|---2================|==========----------|----2/4===-2/4===-4\2p0=-|--------------------|
D|-3=====-3======-3===|===-3=====-3-3/7===-|-5=----------------------|-2-----2-2===---0-2-|
A|--------------------|--------------------|-------------------------|--------------------|
E|--------------------|--------------------|-------------------------|---3-4--------------|

   F                                         E7(#9)
e|------------------0=|=====-3===------5-5-|---------------------|--------------------|
B|----------1=========|==========----------|------8===-8===-8===-|-8=======-----------|
G|---2================|==========-2/5=-----|------7===-7===-7===-|-7=======-----------|
D|-3=====-3======-3===|===-3=====----------|------6===-6===-6===-|-6=======-----------|
A|--------------------|--------------------|------7===-7===-7===-|-7=======-----------|
E|--------------------|--------------------|-0===-0===-0===-0===-|-0=======-17\0------|

[Verse 2]
(1:02)
   Am                                        Dm
e|--------------------|--------------------|--------------------|--------------------|
B|--------------------|--------------6/8===|\6==============----|--------------------|
G|--------------------|--------------7/9===|\7==============-5--|-7~~~~~-5-7-5-------|
D|--------------------|-------5===7--------|--------------------|--------------7-5---|
A|--------------------|-5h7===-------------|--------------------|--------------------|
E|-5==============-5--|--------------------|--------------------|--------------------|

   Am                                        Dm
e|--------------------|--------------------|--------------------|--------5-----------|
B|--------------------|--------------6/8===|\6==============----|--------x-8---------|
G|--------------------|--------------7/9===|\7==============-5--|-7~~~~~-x---7h8p7p5-|
D|--------------------|-------5===7--------|--------------------|--------x-----------|
A|--------------------|-5h7===-------------|--------------------|--------------------|
E|-5==============-5--|--------------------|--------------------|--------------------|

   Am                                        Dm
e|--------------------|--------------------|--------------------|--------------------|
B|--------------------|--------------6/8===|\6==============----|--------------------|
G|--------------------|--------------7/9===|\7==============-5--|-7~~~~~-5-7-5-------|
D|-7~~~~~~~~~~~~~~----|-------5===7--------|--------------------|--------------7-5---|
A|--------------------|-5h7===-------------|--------------------|--------------------|
E|-----------------5--|--------------------|--------------------|--------------------|

   Am                                        Dm
e|--------------------|--------------------|--------------------|--------------------|
B|--------------------|--------------6/8===|\6==============----|--------------------|
G|--------------------|--------------7/9===|\7==============-5--|-7=====-5-7-5-------|
D|--------------------|-------5===7--------|--------------------|--------------7-5---|
A|--------------------|-5h7===-------------|--------------------|--------------------|
E|-5==============-5--|--------------------|--------------------|--------------------|

[Chorus 2]
(1:33)
   F                                         Em
e|------------------0=|==========----------|------------------------|----------------------|
B|----------1=========|=====-1=======-1===-|-----3====-5===-3-----3-|-----3----------------|
G|---2================|==========-2=======-|-2/4---2/4--------2/4---|-2/4---4\2p0----------|
D|-3=====-3======-3===|===-3=======-3=====-|------------------------|-------------2===-0-2-|
A|--------------------|--------------------|------------------------|----------------------|
E|--------------------|--------------------|------------------------|----------------------|

   F                                         Em
e|------------------0=|==========----------|--------------------|--------------------|
B|----------1=========|=====-1=======-1===-|--------------------|--------------------|
G|---2================|==========-2=======-|--------------------|--------------------|
D|-3=====-3======-3===|===-3=======-3=====-|-0h2=-0h2=-0h2=-----|-2-2-1-0=====-0-2p0-|
A|--------------------|--------------------|--------------------|--------------------|
E|--------------------|--------------------|----------------3/4-|--------------------|

   F                                         Em
e|--------------------|--------------------|-----------------------|----------------------|
B|--------------------|--------------------|---------------------3-|-----5----------------|
G|--------------------|--------------------|-----------------2/4---|-2/4---4\2p0----------|
D|--------------------|--------------------|-----2-----2-----------|-------------2===-0-2-|
A|-3=======-3==-2==-0=|-0===========-------|-----------------------|----------------------|
E|--------------------|--------------1-1-1-|-3-4-------------------|----------------------|

   F                                         E7(#9)
e|------------------0=|=====-3===------5-5-|---------------------|--------------------|
B|----------1=========|==========----------|------8===-8===-8===-|-8=======-----------|
G|---2================|==========-2/5=-----|------7===-7===-7===-|-7=======-----------|
D|-3=====-3======-3===|===-3=====----------|------6===-6===-6===-|-6=======-----------|
A|--------------------|--------------------|------7===-7===-7===-|-7=======-----------|
E|--------------------|--------------------|-0===-0===-0===-0===-|-0=======-18\0------|

[Verse 3]
(2:03)
   Am                                        Dm
e|--------------------|--------------------|--------------------|--------------------|
B|--------------------|--------------6/8===|\6==============----|--------------------|
G|--------------------|--------------7/9===|\7==============-5--|-7~~~~~-5-7-5-------|
D|--------------------|-------5===7--------|--------------------|--------------7-5---|
A|--------------------|-5h7===-------------|--------------------|--------------------|
E|-5==============-5--|--------------------|--------------------|--------------------|

   Am                                        Dm
e|--------------------|--------------------|--------------------|------5---------------|
B|--------------------|--------------6/8===|\6==============----|------x-8-------------|
G|--------------------|--------------7/9===|\7==============-5--|-7~~~-x---7h8p7p5-----|
D|--------------------|-------5===7--------|--------------------|------x-----------7-5-|
A|--------------------|-5h7===-------------|--------------------|----------------------|
E|-5==============-5--|--------------------|--------------------|----------------------|

   Am                                        Dm              * *   * * * * * * * *
e|--------------------|--------------------|---------------------|-----------------|
B|--------------------|--------------6/8===|\6==============-----|-----------------|
G|--------------------|--------------7/9===|\7==============-5-5-|-7-7-5---7-7-5-5-|
D|--------------------|-------5===7--------|---------------------|-------7---------|
A|--------------------|-5h7===-------------|---------------------|-----------------|
E|-5==============-5--|--------------------|---------------------|-----------------|

   Am                                        Dm
e|--------------------|--------------------|--------------------|---5---------------|
B|--------------------|--------------6/8===|\6==============----|---x-8-------------|
G|--------------------|--------------7/9===|\7==============-5--|-7-x---7h8p7p5-----|
D|-7~~~~~~~~~~~~~~----|-------5===7--------|--------------------|---x-----------7-5-|
A|--------------------|-5h7===-------------|--------------------|-------------------|
E|-----------------5--|--------------------|--------------------|-------------------|

[Chorus 3]
(2:34)
   F                                         Em
e|------------------0=|==========----------|---------------------|----------------------|
B|----------1=========|=====-1=======-1===-|-----3==========-5-3-|-----3----------------|
G|---2================|==========-2=======-|-2/4============-----|-2/4---4\2p0----------|
D|-3=====-3======-3===|===-3=======-3=====-|---------------------|-------------2===-0-2-|
A|--------------------|--------------------|---------------------|----------------------|
E|--------------------|--------------------|---------------------|----------------------|

   F                                         Em
e|------------------0=|=====-3===----------|--------------------|--------------------|
B|----------1=========|==========----------|--------------------|--------------------|
G|---2================|==========----------|--------------------|--------------------|
D|-3=====-3======-3===|===-3=====-3-3/7===-|-5~~~~~~~~~~~~~-2-0-|-2~~~~~~~~~~~~~~~~~-|
A|--------------------|--------------------|--------------------|--------------------|
E|--------------------|--------------------|--------------------|--------------------|

   F                                         Em
e|------------------0=|==========----------|---------------------|--------------------|
B|----------1=========|=====-1=======-1===-|-----3---------------|--------------------|
G|---2================|==========-2=======-|-2/4---4\2p0---------|--------------------|
D|-3=====-3======-3===|===-3=======-3=====-|-------------2-----2-|-2-2-1-0===-0h2p0-2-|
A|--------------------|--------------------|---------------------|--------------------|
E|--------------------|--------------------|---------------3-4---|--------------------|

   F                                         E7(#9)
e|------------------0=|=====-3===------5-5-|---------------------|--------------------|
B|----------1=========|==========----------|------8===-8===-8===-|-8=======-----------|
G|---2================|==========-2/5=-----|------7===-7===-7===-|-7=======-----------|
D|-3=====-3======-3===|===-3=====----------|------6===-6===-6===-|-6=======-----------|
A|--------------------|--------------------|------7===-7===-7===-|-7=======-----------|
E|--------------------|--------------------|-0===-0===-0===-0===-|-0=======-17\0------|

Verse 4/Bridge 
(3:05)
   Am                                        Dm
e|--------------------|--------------------|--------------------|--------------------|
B|--------------------|--------------6/8===|\6==============----|--------------------|
G|--------------------|--------------7/9===|\7==============-5--|-7~~~~~-5-7-5-------|
D|--------------------|-------5===7--------|--------------------|--------------7-5---|
A|--------------------|-5h7===-------------|--------------------|--------------------|
E|-5==============-5--|--------------------|--------------------|--------------------|

   Am                                        Dm                                  *   *
e|--------------------|--------------------|-----------------5---|---------------------|
B|--------------------|--------------6/8===|\6==============-x-8-|---------------------|
G|--------------------|--------------7/9===|\7==============-x---|-7h8p7p5-7---5---7---|
D|--------------------|-------5===7--------|-----------------x---|-----------7---7---7-|
A|--------------------|-5h7===-------------|---------------------|---------------------|
E|-5==============-5--|--------------------|---------------------|---------------------|

[Solo, Part I]
(3:20)
   Am                                        Dm
e|--------------------|--------------------|---------------------------|----------------------|
B|-8===-10------------|-8===-10------------|---12b13====-12b13==-12----|----------------------|
G|------------------9-|--------------------|------------------------10~|~~~~~~~~-10==-12==-10-|
D|--------------------|--------------------|---------------------------|---------x------------|
A|--------------------|--------------------|---------------------------|---------x------------|
E|--------------------|--------------------|---------------------------|----------------------|

   Am                                      Dm
e|--------------------|------------------|--------------------|-------------------|
B|--------------------|------------------|--------------------|-------------------|
G|-9~~~~~~~~~~~-5-----|-5p4--------------|--------------------|-------------------|
D|--------------5-7---|-----5/7===-5-----|--------------------|---------------5---|
A|--------------x---7-|--------------7-6-|-5~~~~~-3-5-3-5/7-5~|~~~~~~~~~~-5/7---7-|
E|--------------x-----|------------------|--------------------|-------------------|

   Am                                      Dm
e|-------------------|-------------------|-------5-----------------|--------------------|
B|-5-----------------|-5===--------------|-----5---8---------------|--------------------|
G|-5-5---------------|-5===-7--------5---|-7b9-------7/8\7-5-7h9p7~|~~~~~~-5-7-5---5----|
D|-----7===-7~~~-5---|--------7===-7---7-|-------------------------|-------------7------|
A|-----------------7-|-------------------|-------------------------|--------------------|
E|-------------------|-------------------|-------------------------|--------------------|

   Am                                         Dm
e|-------5-------5-|-8=---------------------|-------------------|-----------------|
B|-----5---5-7b9---|----10p8----------------|-------------------|-----------------|
G|-7b9-------------|---------9=-7h8p7-5-----|-------------------|-----------------|
D|-----------------|--------------------7-5-|-5/7-5-------------|-----------------|
A|-----------------|------------------------|-------7-6-5-3-5-3-|-5-3-------------|
E|-----------------|------------------------|-------------------|-----5-3-5===-\0-|

[Solo, Part II]
(3:51)
   Am                                           Dm
e|-----------------------|--------------------|-------------------------|--------------------|
B|---------12b13==-12-10-|-----------12b13====|-12b13==-12---10---------|--------------------|
G|-----------------------|----9~~~~~----------|-------------------10-10~|~~~~~~~~~~~~~~~~~~~~|
D|-----------------------|--------------------|-------------------------|--------------------|
A|-----------------------|--------------------|-------------------------|--------------------|
E|-----------------------|--------------------|-------------------------|--------------------|

   Am                                           Dm
e|-----------------------|--------------------|-------------------------|----------------------|
B|---------12b13==-12-10-|-----------12b13====|-12b13==-12---10---------|----------------------|
G|-----------------------|----9~~~~~----------|-------------------10-10~|~~~~~~~~~-10=-12=-10=-|
D|-----------------------|--------------------|-------------------------|----------x-----------|
A|-----------------------|--------------------|-------------------------|----------x-----------|
E|-----------------------|--------------------|-------------------------|----------------------|

   Am                                           Dm
e|-----------------------|--------------------|-------------------------|-------------------------|
B|---------12b13==-12-10-|-----------12b13====|-12b13==-12---10---------|-----------12b13==-12b13-|
G|-9~~~~~~---------------|----9~~~~~----------|-------------------10-10~|~~~~~~~~~~---------------|
D|-----------------------|--------------------|-------------------------|-------------------------|
A|-----------------------|--------------------|-------------------------|-------------------------|
E|-----------------------|--------------------|-------------------------|-------------------------|

   Am                                                Dm
e|------------------------|------------------------|---------------------------|--------------------|
B|-12b13b12-10-12b14~~~~~-|-12b14b12-10-12b14~~~~~-|-12b14b12-10-12---13---15~~|~~~~~~~~~~~~~~~~----|
G|------------------------|------------------------|---------------------------|--------------------|
D|------------------------|------------------------|---------------------------|--------------------|
A|------------------------|------------------------|---------------------------|--------------------|
E|------------------------|------------------------|---------------------------|--------------------|

[Solo, Part III] 
(4:22)
   Am                                                  Dm
e|----------15-------------|----------15-------------|----------15------------------|---------------------|
B|-15b17===----15b17~~~~~~-|-15b17===----15b17~~~~~~-|-15b17===----15b17====-b15p13-|-15~~~~~-15-13-------|
G|-------------------------|-------------------------|------------------------------|---------------12-10-|
D|-------------------------|-------------------------|------------------------------|---------------------|
A|-------------------------|-------------------------|------------------------------|---------------------|
E|-------------------------|-------------------------|------------------------------|---------------------|

   Am                                                    Dm
e|-----------------15-------|-----------------15-------|----------------------15b17~|~~~~~~~~~~~~~~~~~~~~|
B|---------15b17==----15b17~|~~~~~~~~-15b17==----15b17=|======b15p13-15----13-------|--------------------|
G|--------------------------|--------------------------|----------------14----------|--------------------|
D|--------------------------|--------------------------|----------------------------|--------------------|
A|--------------------------|--------------------------|----------------------------|--------------------|
E|--------------------------|--------------------------|----------------------------|--------------------|

   Am                                                 Dm
e|---------19b20==-19-17-|---------19b20===-19b20==-|-19b20==-19-17==-------|-------17-------------|
B|-----------------------|---17---------------------|-----------------18-18~|~~~~~~-x--20-18-17\15-|
G|-----------------------|--------------------------|-----------------------|-------x--------------|
D|-----------------------|--------------------------|-----------------------|----------------------|
A|-----------------------|--------------------------|-----------------------|----------------------|
E|-----------------------|--------------------------|-----------------------|----------------------|

   Am                                                   Dm
e|-----------------------|----------------17----------|------------------------------|--------------------17-|
B|-17-18-17~~~~-15-------|---15-----------x-20-17-----|------------------------------|-----------------17----|
G|-----------------14-17=|==----14----14--x------19h20|p19-17--19--17----------------|-----------19b21-------|
D|-----------------------|----------------------------|------19--19--19-17-----------|-----------------------|
A|-----------------------|----------------------------|-------------------19\17p15---|-17-15-----------------|
E|-----------------------|----------------------------|---------------------------17-|------17==-------------|

[Solo, Part IV]
(4:53)
   F                                                Em
e|----------------------20-------|----------------|-19==--17-19-------------------|-------------------------|
B|-20b22=-20b22=-20b22=----20b22~|~~~~~~~~~~~~~~~~|-x-----------20b22-20b22-17----|-17-17-16-15~~~-15h17p15-|
G|-------------------------------|----------------|-x--------------------------16-|----------------x--------|
D|-------------------------------|----------------|-x-----------------------------|----------------x--------|
A|-------------------------------|----------------|-x-----------------------------|-------------------------|
E|-------------------------------|----------------|-------------------------------|-------------------------|

   F                                           Em
e|-------13=-12=-13-|-12=--------------------|------12-------------------|-----------------------------------|
B|-13~~~-x----------|----13=-13=-13----------|------x-15-----------------|------15---------------------------|
G|-------x----------|--------------14-12/14==|-12==-x---14b15b14p12------|-14/16---16\14p12-14b15b14---------|
D|------------------|------------------------|---------------------14-12-|--------------------------14-12/14-|
A|------------------|------------------------|---------------------------|-----------------------------------|
E|------------------|------------------------|---------------------------|-----------------------------------|

   F                                               Em
e|----------------------|------------------------|-----------------------|-------------------|
B|----------------------|------------------------|-----------------------|-------------------|
G|----------------------|------------------------|-----------------------|-------------------|
D|/15~~~~-15-15=-14--12-|-10/12===-10-10==-7-7-7-|-7/9---7/9---7/9---5-6-|-5-6-----0-0h2-0-2-|
A|----------------------|------------------------|-----------------------|-----7-6-----------|
E|----------------------|------------------------|-----------------------|-------------------|

   F                                         E7(#9)
e|------------------0=|=====-3===------5-5-|---------------------|--------------------|
B|----------1=========|==========----------|------8===-8===-8===-|-8=======-----------|
G|---2================|==========-2/5=-----|------7===-7===-7===-|-7=======-----------|
D|-3=====-3======-3===|===-3=====----------|------6===-6===-6===-|-6=======-----------|
A|--------------------|--------------------|------7===-7===-7===-|-7=======-----------|
E|--------------------|--------------------|-0===-0===-0===-0===-|-0=======-15\0------|

[Verse 5]
(5:23)
   Am                                        Dm
e|--------------------|--------------------|--------------------|--------------------|
B|--------------------|--------------6/8===|\6==============----|--------------------|
G|--------------------|--------------7/9===|\7==============-5--|-7~~~~~-5-7-5-------|
D|--------------------|-------5===7--------|--------------------|--------------7-5---|
A|--------------------|-5h7===-------------|--------------------|--------------------|
E|-5==============-5--|--------------------|--------------------|--------------------|

   Am                                        Dm
e|--------------------|--------------------|----------5-----------|-----------------|
B|--------------------|--------------6/8===|\6=======-x-8---------|-----------------|
G|--------------------|--------------7/9===|\7=======-x---7h8p7p5-|-7---5---------5-|
D|--------------------|-------5===7--------|----------x-----------|---7---5-7---5---|
A|--------------------|-5h7===-------------|----------------------|-----------7-----|
E|-5==============-5--|--------------------|----------------------|-----------------|

   Am                                        Dm              * *   * * * * * * * *
e|--------------------|--------------------|---------------------|-----------------|
B|--------------------|--------------6/8===|\6==============-----|-----------------|
G|--------------------|--------------7/9===|\7==============-5-5-|-7-7-5---7-7-5-5-|
D|-7~~~~~~~~~~~~~~----|-------5===7--------|---------------------|-------7---------|
A|--------------------|-5h7===-------------|---------------------|-----------------|
E|-----------------5--|--------------------|---------------------|-----------------|

   Am                                        Dm
e|--------------------|--------------------|--------------------|-----5---------------|
B|--------------------|--------------6/8===|\6==============----|-----x-8-------------|
G|--------------------|--------------7/9===|\7==============-5--|-7==-x---7h8p7p5-----|
D|-7~~~~~~~~~~~~~~----|-------5===7--------|--------------------|-----x-----------7-5-|
A|--------------------|-5h7===-------------|--------------------|---------------------|
E|-----------------5--|--------------------|--------------------|---------------------|

[Outro]
(5:54)
   Am                                        Dm
e|--------------------|--------------------|--------------------|--------------------|
B|--------------------|--------------6/8===|\6==============----|--------------------|
G|--------------------|--------------7/9===|\7==============-5--|-7~~~~~-5-7-5-------|
D|--------------------|-------5===7--------|--------------------|--------------7-5---|
A|--------------------|-5h7===-------------|--------------------|--------------------|
E|-5==============-5--|--------------------|--------------------|--------------------|

   Am                                        Dm (slow down here)
e|--------------------|--------------------|-----------------------------------------|
B|--------------------|--------------6/8===|\6==============-------------------------|
G|--------------------|--------------7/9===|\7==============-5----7~~~~~-5-7---5-7---|
D|--------------------|-------5===7--------|---------------------------------7-------|
A|--------------------|-5h7===-------------|-----------------------------------------|
E|-5==============-5--|--------------------|-----------------------------------------|

6:11

e|-5==-------------------------------------------------------------------------------|
B|-5==-8==---------------------------------------------------------------------------|
G|-x-------7/8\7==-5==---------------------------------------------------------------|
D|-x-------------------7==-----5==-7------5/7==-5==----------------------------------|
A|-x-----------------------7==----------------------7==-6==-5==-3==------------------|
E|------------------------------------------------------------------5====-3=====-----|

6:22
   Dm         C              Am             G
e|-------------------------------------------------------------------------|
B|-------------------------------------------------------------------------|
G|-------------------------------------------------------------------------|
D|-------------------------------------------------------------------------|
A|-5=========-3=============-----------------------------------------------|
E|---------------------------5=============-3=================-------------|

6:30
   Am7                                Am9 (use whammy bar for vibrato here)
e|-------------------------5=========-7~~~~~~~~~~~~~~~~~~~~~~~~~~~~~~~~~~~-|
B|-----------------5=================-5~~~~~~~~~~~~~~~~~~~~~~~~~~~~~~~~~~~-|
G|-------------5=====================-5~~~~~~~~~~~~~~~~~~~~~~~~~~~~~~~~~~~-|
D|---------5=========================-5~~~~~~~~~~~~~~~~~~~~~~~~~~~~~~~~~~~-|
A|-----7=============================-7~~~~~~~~~~~~~~~~~~~~~~~~~~~~~~~~~~~-|
E|-5==================-5=============-5~~~~~~~~~~~~~~~~~~~~~~~~~~~~~~~~~~~-|

***************LEGEND***************

| x    Dead note
| *    Palm muting
| h    Hammer-on
| p    Pull-off
| /    Slide up
| \    Slide down
| =    Hold note
| ~    Hold note with vibrato
| b    Bend note

************************************

            
            
Suggest correction
Creating personal tab
Creating personal tab
You can edit any tab online and save it as your Personal.

You can edit, replace or remove any tab part or add personal notes – all changes will be seen only by you.

Personal tabs can be accessed anytime from any device, even offline.
Learn more »
Give kudos to tab author, rate the tab!
1 2 3 4 5
comments
print report bad tab
guest
You may want to rate the tab now too:
select rating
Wanna post a correction for this tab? Suggest correction