Oops, an error
Loading. Please wait.

Corriendo El Riesgo Tab

30 views 1 this week
no commentswrite comment
1 2 3 4 5
3 more votes to show rating
add to favorites
launch autoscroll
font size
0
reset
how to read this tab
guitar tuner
×
Best way to learn
"Corriendo El Riesgo"
Autoscroll
slow
fast
+/-
esc
set tempo
stop
Antes que nada, quiero decir que yo solo corregí el solo,
que estaba bastante flojo...
lo demás es de Matías Grossi


B5             F#5
otra vez me desilucionas,
G#5            E5
otra vez te vas sin saludar
B5                   F#5
y el beso que mañana nunca vas a recordar,
E5
mas que yo


Y tal vez el tiempo pasara
y tal vez ni me recordaras
no sera justo quisas
que me dejes, esta ves


B5               F#5            -]
me gustaria hablar con voz      -]p.m.
G#5              F#5            -]
me costaria decirtelo           -]
E5              B5
me jugaria yo por vos
E5                 B5
corriendo el riesgo de perder


Punteo:

e|--------------------------------------------------------------------|
B|-----------------------12-14-14--12--14b---(14)-(14)--14-14-16-12v--|
G|--/11--8--11v------/11----------------------------------------------|
D|--------------------------------------------------------------------|
A|--------------------------------------------------------------------|
E|--------------------------------------------------------------------|


e|------------------------/12-12-12-12--11-11v----11-11-11--12-9v--|
B|--12-12-11--9--9v------------------------------------------------|
G|-----------------------------------------------------------------|
D|-----------------------------------------------------------------|
A|-----------------------------------------------------------------|
E|-----------------------------------------------------------------|


e|--9-9-9-10-9--7h9h7---/19-19v----|
B|---------------------------------|
G|---------------------------------|
D|---------------------------------|
A|---------------------------------|
E|---------------------------------|


Nota:
El E5 se hace en el 7mo casillero

b: estirar
v: vibrar
h: martillo
Suggest correction
Give kudos to tab author, rate the tab!
1 2 3 4 5
comments
print report bad tab
guest
You may want to rate the tab now too:
select rating
Wanna post a correction for this tab? Suggest correction