Oops, an error
Loading. Please wait.

El Principio Del Final Bass

67 views 3 this week
no commentswrite comment
1 2 3 4 5
3 more votes to show rating
add to favorites
×
Save as Personal and add changes to this tab that will be seen only by you. Learn more ›
×
You can save this tab as Personal to edit and correct it or add notes. All changes will be seen only by you. Learn more »
save as personal
new!
launch autoscroll
font size
0
reset
guitar tuner
Autoscroll
slow
fast
+/-
esc
set tempo
stop
INTRO (x2)
G------------------------
D-----22-----------------
A-55-----33-2/3-2/3-33---
E------------------------


Riff 1
G---------------------------------------------------------------------
D---------22-22-1/2-2-22--------22-22-1/2-2-22--------22-22-1/2-2-2---
A------------------------------------------------------------------53-
E-3-3-3-3----------------3-3-3-3--------------3-3-3-3-----------------

(sigue riff 1)
G-----------------------
D-----------------------
A-3-3-3-55-55-4/5-53-2--
E---------------------5-(a partir de aquí repites todo el riff 1)


Riff 2
(por que yo)
G---------------------------
D---------------------------
A-------------33-33-54-32---(repiste riff2 3 veces (por que yo..)
E-33-33-33-33-------------53    y en la ultima)   -33-33-23-33?


Se repite todo (intro,riff1,riff2,intro y acaba en sol)
Suggest correction
Give kudos to tab author, rate the tab!
1 2 3 4 5
comments
print report bad tab
guest
Wanna post a correction for this tab? Suggest correction