Oops, an error
Loading. Please wait.

La Vida Otra Vez Chords

15 views 1 this week
no commentswrite comment
1 2 3 4 5
3 more votes to show rating
add to favorites
launch autoscroll
font size
0
reset
transpose
0
reset
display chords
guitar tuner
×
Best way to learn
"La Vida Otra Vez"
Autoscroll
slow
fast
+/-
esc
set tempo
stop
E                       C#m
Ella vive en otra dimensión,
A                           Am
La que me hizo perder la razón,
            E            G#m
Más de una vez.


E                          C#m
Hablo con el aire y la imagino,
A                              Am
Desnuda en su cuarto y sin prejuicios,
          E                 G#m
Abrazándome.


A      E      F#m
No creas que no,
A   E       F#m
Sufro como vos,
            C#m
No poder vivir
              A
La vida otra vez.

El destino me arrastró a su lado,
Yo hubiera querido ser su esclavo,
Y hacerla feliz.

No creas que no,
Sufro como vos,
No poder vivir,
La vida otra vez.

E]--------------------------------------------------------------------
A]--------------------------------------------------------------------
D]2--2-2-4-6--4--2--4~~6-------2--2-2--4--2--4--2-4~~5--4--2--4--2----
G]--------------------------------------------------------------------
B]--------------------------------------------------------------------
E]--------------------------------------------------------------------

E]--------------------------------------------------------------------
A]--------------------------------------------------------------------
D]2--2--4--2--------6-------------------------------------------------
G]------------4--6-----6--4--6--4--6-----6-----6----------------------
B]------------------------------------5-----5-----5---7~~7------------
E]--------------------------------------------------------------------

E]--------------------------------------------------------------------
A]--------------------------------------------------------------------
D]--------------------------------------------------------------------
G]6--4--6--4--6-----6-----6-------------------------------------------
B]---------------5-----5-----5--7~~7--7~~------9--7--5----5-5--5-7--5-
E]---------------------------------------7--7-------------------------

A su lado me siento con vida,
Sin embargo muero por su risa,
Y todo lo demás.

No creas que no,
Sufro como vos,
No poder vivir,
La vida otra vez.
La vida otra vez??. (x 4)


chamoydandolata@
Suggest correction
Give kudos to tab author, rate the tab!
1 2 3 4 5
comments
print report bad tab
guest
You may want to rate the tab now too:
select rating
Wanna post a correction for this tab? Suggest correction