Oops, an error
Loading. Please wait.

La Vida Otra Vez Tab

32 views 1 this week
no commentswrite comment
1 2 3 4 5
3 more votes to show rating
add to favorites
launch autoscroll
font size
0
reset
how to read this tab
guitar tuner
×
Best way to learn
"La Vida Otra Vez"
Autoscroll
slow
fast
+/-
esc
set tempo
stop
ACORDES:> B G D F# E LA

Todos los acordes son en quintas, o sea D5, B5, etc...

Intro: D

                       B
Ella vive en otra dimension
G
la que me hizo perder la razon
           D F#
mas de una vez.

Hablo con el aire y la imagino
desnuda en su cuarto y sin prejuicios
abrazandome.

G  D       E
No creas q no
sufro como vos...

         B
No poder vivir...
             G
la vida otra vez...

El destino me arrastro a su lado
yo hubiera querido ser su esclavo
y hacerla feliz.

No creas que no
sufro como vos.

No poder vivir...
la vida otra vez...

e:-----------------------------------------------------------
B:-----------------------------------------------------------
G:-----------------------------------------------------------
D:-----------------------------------------------------------
A:-5-5555-7/9-9-7-5-7/9-9-9/-5~-5555-7-5-7-5-7/9-7-5-7-5-----
E:-----------------------------------------------------------

e:-----------------------------------------------------------
B:-----------------------------------------------------------
G:------------------------------------------------9/11-11-9~-
D:--------7~-/9-9-----------/9-9-999-12-9-12-9-12------------
A:-55-7-5---------9~-7/9-9-----------------------------------
E:-----------------------------------------------------------

e:-----------------------------------------------------------
B:-----------------------------------------------------------
G:-9/11-9~---------------------------9/11-9/11-9/11-9/11-----
D:---------9-7-9-7-9/12-12-9-12-9-12-------------------------
A:-----------------------------------------------------------
E:-----------------------------------------------------------

e:-----------------------------------------------------------
B:-----------------------------------------------------------
G:-9/11-9/11~-11V-11-119-7-9-7-------------------------------
D:---------------------------7-------------------------------
A:---------------------------5-------------------------------
E:-----------------------------------------------------------


A su lado me siento con vida
sin embargo muero por su risa
y todo lo de mas.

No poder vivir
la vida otra vez...

D B G
     La vida otra vez...

Despues que dice "no creas que no..." toca este arreglo:
e:----------
B:----------
G:----------
D:-9--9-7---
A:--------9-
E:----------

Al final, cuando
 repite "La vida otra vez...", toca esto:
e:----------------
B:----------------
G:----------------
D:-5/9--7-5--7-5--
A:----------------
E:----------------

                                                                 TO ANNA!!!
                                                        ai lov iu, honey!!!
Suggest correction
Give kudos to tab author, rate the tab!
1 2 3 4 5
comments
print report bad tab
guest
You may want to rate the tab now too:
select rating
Wanna post a correction for this tab? Suggest correction