Oops, an error
Loading. Please wait.

Ritmo Criminal Bass

25 views 1 this week
no commentswrite comment
1 2 3 4 5
3 more votes to show rating
add to favorites
launch autoscroll
font size
0
reset
guitar tuner
×
Best way to learn
"Ritmo Criminal"
Autoscroll
slow
fast
+/-
esc
set tempo
stop
Intro/Solo/Puente
G ----------------------
D ----------------------
A -----5--7--3--0--3--0-
E --3-------------------

Verso
G -------------------------------------------------
D -------------------------------------------------
A --------------5--5--5--5--7--7--7--7--3--0--3--0-
E --3--3--3--3-------------------------------------


Estribillo
G ---------------------------------------------------------------------------------
D ---------------------------------------------------------------------------------
A --2--2--2--2--------------5--5--5--5--0--7--5--3--3--3-----------3--3--3---------
E --------------3--3--3--3--------------------------------3--3--3-----------3--3--3
Suggest correction
Give kudos to tab author, rate the tab!
1 2 3 4 5
comments
print report bad tab
guest
You may want to rate the tab now too:
select rating
Wanna post a correction for this tab? Suggest correction