Oops, an error
Loading. Please wait.

Borrador Tab

7 views 1 this week
no commentswrite comment
1 2 3 4 5
3 more votes to show rating
add to favorites
launch autoscroll
font size
0
reset
how to read this tab
guitar tuner
Autoscroll
slow
fast
+/-
esc
set tempo
stop
Intro: [ch]C5 RE5[/ch]

[ch]Cm                 [ch]D#[/ch]          LA#[/ch]
   Desperté y un montón de hojas ví.
[ch]Cm                 [ch]G#    DOm     [ch]D#[/ch] LA#[/ch] SOL#[/ch]
   Borrador de un ensayo de cómo partir.
[ch]Gm       [ch]Fm[/ch]  SOL#[/ch]
   Y hoy espero solo olvidar,
[ch]Cm               [ch]D#[/ch]      LA#[/ch]
   la razón no la voy a buscar.
[ch]Cm               [ch]G#    DOm      [ch]D#[/ch]  LA#[/ch] SOL#[/ch]
   El perdón pesa como la misma emosión.
[ch]Gm       [ch]Fm    SOL#5[/ch]      SOL5[/ch]
   Y en el vidrio muerdo con rabia.

Remsus4-[ch]Dm             [ch]A#5 REm[/ch]  FA5[/ch]
           Siento que la realidad, duele, sangra.
Remsus4-[ch]Dm                 [ch]A5[/ch]          [ch]G5[/ch]  LA5[/ch]
           Y como el viento nunca va a parar..
Remsus4-[ch]Dm                    [ch]A#5   REm[/ch]    FA5[/ch]
           Los días que en la cuenta están, duelen, sangran
Remsus4-[ch]Dm             [ch]A5[/ch]        [ch]G[/ch]  LA5[/ch]
           Como el fuego sí te marcarán.

Solo:

e|-8-8-10-10b11-10-8----------6--------------------
B|-------------------8v------------8-10-11-10-8----
G|-----------------------8-7v----7--------------7--
D|-------------------------------------------------
A|-------------------------------------------------
E|-------------------------------------------------

e|------------10-12-13-12-13-12--------------------
B|---------10-------------------10-8v-10-----------
G|-----10------------------------------------------
D|-9-8---------------------------------------------
A|-------------------------------------------------
E|-------------------------------------------------

Siento que la realidad, duele, sangra.
Y como el viento nunca va a parar..
Los días de la cuenta están, duelen, sangran
Como el fuego sí te marcarán.

Leyendas:

b: bending
V: vibrato

[ch]Dm[/ch] sus4

e|-3----
B|-3----
G|-2----
D|-0----
A|------
E|------
Suggest correction
Give kudos to tab author, rate the tab!
1 2 3 4 5
comments
print report bad tab
guest
You may want to rate the tab now too:
select rating
Wanna post a correction for this tab? Suggest correction