Oops, an error
Loading. Please wait.

Cobrador De Mentiras Tab

12 views 1 this week
no commentswrite comment
1 2 3 4 5
3 more votes to show rating
add to favorites
launch autoscroll
font size
0
reset
how to read this tab
guitar tuner
Autoscroll
slow
fast
+/-
esc
set tempo
stop
Help us to improve Ultimate-Guitar.com Take our survey!
×
Intro:

e|--------------------------------|
B|--------------------------------|
G|--------------------------------|
D|-----------------------------5--| x4
A|-7-7-5-5-7-7-5-5-7-7-5-5-7-7-5--|
E|-5-5-3-3-5-5-3-3-5-5-3-3-5-5-3--|

e|-----------------------------------------------|
B|-----------------------------------------------|
G|-------------5-5--5-5--5-----------------------|
D|-7-7--7-7--7-5-5--5-5--5-5-5--5-5--5-5--5-5--5-| x2
A|-7-7--7-7--7-3-3--3-3--3-5-5--5-5--5-5--5-5--5-|
E|-5-5--5-5--5-------------3-3--3-3--3-3--3-3--3-|


[ch]A5[/ch]                       [ch]C5[/ch]
    Viaja solo para no volver
                           [ch]G5[/ch]
    vive y muere para no creer
               [ch]F5         SOL5[/ch]
    es así su plan.
[ch]A5[/ch]                           [ch]C5[/ch]
    Te mira como si alguien jamás
                 [ch]G5[/ch]
    dijera la verdad
                      [ch]F5                  SOL5[/ch]
    el solo debe procurar que mienta de muevo

[ch]D5[/ch]               Mi5/Fa5                Mi5/Re5
    Ama su poder          no debes creer
                  Mi5/Fa5       [ch]G[/ch]
    el de abajo paga__ra  por mentir.

Riff1     [ch]G Riff2         [ch]E [ch]F Riff1               SOL[/ch]  Riff2 MI[/ch] FA[/ch]
    Y de nuevo, asi te arrastrara hasta el fin como a mi oh

Frota sus manos la primera vez
si no es muy blanca cobrará por tres
con egoismo más
Entre amigos lo mejor
y lo mas bajo mentir por amor
lo puedes evitar
hacerlo de nuevo

Ama su poder, no debes creer,
el de abajo pagara por mentir.

Riff1 [ch]G Riff2        [ch]E[/ch] FA[/ch]
Ohh       Aguanta un poco mas
Ohh       Dispárale a matar
Ohh       Lo llamas y el vendrá
ohh       Es mentir por la verdad.

Intro x 4 (solo la primer parte)
Solo

Ama su poder, no debes creer,
el de abajo pagara por mentir.

Ohh Aguanta un poco mas,
Ohh Dispárale a matar.
Ohh Lo llamas y el vendrá
ohh Es mentir por la verdad.


Riff:
e|-----------
B|-----------
G|-----5-----
D|-----5-----
A|-0-2-3-----
E|-----------

Riff 2:
e|-----------
B|-----------
G|-----7-----
D|-----7-----
A|-0-3-5-----
E|-----------

//Eb//
Suggest correction
Give kudos to tab author, rate the tab!
1 2 3 4 5
comments
print report bad tab
guest
You may want to rate the tab now too:
select rating
Wanna post a correction for this tab? Suggest correction