Oops, an error
Loading. Please wait.

Esta Noche Es Mi Noche Tab

16 views 1 this week
no commentswrite comment
1 2 3 4 5
3 more votes to show rating
add to favorites
launch autoscroll
font size
0
reset
how to read this tab
guitar tuner
Autoscroll
slow
fast
+/-
esc
set tempo
stop
Help us to improve Ultimate-Guitar.com Take our survey!
×
Esta noche es mi noche-Mala Medicina:

(Intro):
6//--5--5--5-3-5----5-0-3-5---0-5--5--5-3-5----5-0-3-5---3---1//
5//---------------3--------------------------3----------------//
4//----------------------------------------------------------//
3//----------------------------------------------------------//
2//----------------------------------------------------------//
1//----------------------------------------------------------//

([ch]Am[/ch]-[ch]G[/ch]-[ch]F[/ch])X2
[ch]Am       [ch]G     [ch]F               LAm[/ch]      SOL[/ch]        FA[/ch]
  ...Solo tu nadie mas (ahah tu...)...solo tu me puedes ayudar (ayudar...)
[ch]Am       [ch]G     [ch]F               LAm[/ch]       SOL[/ch]        FA[/ch]
  ...corazon de cristal(de cristal)  ...solo vivo si no estas conmigo
[ch]Am[/ch]      [ch]G[/ch]         [ch]F[/ch]
 ...erro por tu ilusion(erro por...uoh)
[ch]Am[/ch]       [ch]G[/ch]             [ch]F[/ch]
...te dejo a cambio un gran dolor(gran dolor...)
[ch]Am       [ch]G     [ch]F    LAm        SOL[/ch]       [ch]E[/ch]   FA[/ch]   SOL[/ch]
  ...y tu credibilidad   ...ya no existira jamas...

6//--5--5--5-3-5----5-0-3-5----5--5--5-3-5--0-//
5//---------------3---------------------------//
4//-------------------------------------------//
3//-------------------------------------------//
2//-------------------------------------------//
1//-------------------------------------------//
 [ch]Am[/ch]        [ch]G[/ch]   [ch]F[/ch]
  ...Ahora temes perder(ahora temes perder...)
 [ch]Am[/ch]       [ch]G[/ch]        [ch]F[/ch]
  ...si confias otra vez (si confias...)
 [ch]Am[/ch]       [ch]G[/ch]       [ch]F[/ch]
  ...aprendiste a escapar(a escapar)
[ch]Am[/ch]             [ch]G[/ch]        [ch]F[/ch]
...no quieres ver la realidad (ahahah...)
(Estribillo):
 [ch]C                   SOL[/ch]
  ...Esta noche (esta noche) es mi noche(es mi noche)
 [ch]Dm                            [ch]F[/ch] SOL[/ch]
  ...hoy se que te voy a encontrar...
 [ch]C                SOL[/ch]
  ...lo presiento se que estaras
 [ch]Dm                         [ch]F[/ch]  SOL[/ch]
  ...en algun lugar de esta ciudad...

6//--5--5--5-3-5----5-0-3-5----5--5--5-3-0-3-//
5//---------------3--------------------------//
4//------------------------------------------//
3//------------------------------------------//
2//------------------------------------------//
1//------------------------------------------//

[ch]Am[/ch]         [ch]G[/ch]          [ch]F[/ch]
  ...En tu banco diez no hay( ya no hay...)
[ch]Am[/ch]         [ch]G[/ch]          [ch]F[/ch]
  ...y durmiendo a esta hora no estas(ya no estas)
[ch]Am[/ch]             [ch]G[/ch]              [ch]F[/ch]
  ...hay muchos lados por donde empezar
[ch]Am[/ch]         [ch]G[/ch]           [ch]F[/ch]
  ...te buscare sin descansar


(Solo): ([ch]Am[/ch]-[ch]G[/ch]-[ch]F[/ch])X4

[ch]Am            [ch]F[/ch]        [ch]G[/ch]         [ch]C[/ch]   SOL[/ch]
 ...Necesito verte ya y no me rendire jamas
[ch]Am[/ch]               [ch]F[/ch]
 ...es que te amo, aun te quiero,
 [ch]C            [ch]G        LAm[/ch]     [ch]F[/ch]   SOL[/ch]
y se que tu tambien me amaras... ahah ahah
(Estribillo):
 [ch]C                   SOL[/ch]
  ...Esta noche (esta noche) es mi noche(es mi noche)
 [ch]Dm                            [ch]F[/ch] SOL[/ch]
  ...hoy se que te voy a encontrar...
 [ch]C                SOL[/ch]
  ...lo presiento se que estaras
 [ch]Dm                            [ch]F[/ch]  SOL[/ch]
  ...en algun lugar de esta ciudad...

 [ch]C                   SOL[/ch]
  ...Esta noche (esta noche) es mi noche(es mi noche)
 [ch]Dm                            [ch]F[/ch] SOL[/ch]
  ...hoy se que te voy a encontrar...
 [ch]C                SOL[/ch]
  ...lo presiento se que estaras
 [ch]Dm                            [ch]F[/ch]  SOL[/ch]
  ...en algun lugar de esta ciudad...

([ch]C-[ch]G-[ch]Dm[/ch]-FA[/ch]-SOL[/ch])X2

(Solo 2): (Do-Sol-Rem-Fa-Sol)X2

Final: [ch]C[/ch]

"""...Hola gente a les dejo esta Tab, que esta muy buena!
espero que les sirva ya que no es dificil!
suerte
un abrazo
cualquier cosa --->>> juangonzalez_06@ ..."""
Suggest correction
Give kudos to tab author, rate the tab!
1 2 3 4 5
comments
print report bad tab
guest
You may want to rate the tab now too:
select rating
Wanna post a correction for this tab? Suggest correction