Oops, an error
Loading. Please wait.

No Perdamos Tiempo Tab

4 views 1 this week
no commentswrite comment
1 2 3 4 5
3 more votes to show rating
add to favorites
launch autoscroll
font size
0
reset
how to read this tab
guitar tuner
Autoscroll
slow
fast
+/-
esc
set tempo
stop
Help us to improve Ultimate-Guitar.com Take our survey!
×
Intro:

e|----------------------------------------------
B|----------------------------------------------
G|----------------------------------------------
D|-7-6-5---3---5-6-5-3---7-6-5-7-10-13-12-10-7-- x 2
A|-5-4-3-5---5--------5--5-4-3-5-8--11-10-8--5--
E|----------------------------------------------

[ch]D5          [ch]C#5[/ch]           DO5[/ch]
   Entre los ruidos de un camino
         [ch]B5[/ch]           [ch]A#5[/ch]
   tan difícil de afrontar,
          [ch]A5[/ch]          Riff
   sin pensar en los demás.

Resignándome al olvido
rechace a la soledad,
no podré volver atrás.

[ch]A#5      [ch]F5[/ch]  SI5[/ch]
   Deshinibido, peleando por mi lugar,
[ch]A#5    [ch]F5[/ch]     LA5[/ch]
   malherido, nada ni nadie puede no me pueden obligar

[ch]D      [ch]A#[/ch]    FA[/ch]       [ch]C[/ch]                  |
   Libre, libre  se nos va el momento       |_ Acompaña riff2 de fondo
[ch]D      [ch]A#[/ch]          FA[/ch]      [ch]C[/ch]             |
   ahora   es mi hora  no perdamos tiempo.  |

Re intro

Confundido estoy perdido
entre el miedo a la verdad,
y mi profunda realidad.

Arpegio
  Sin motivo he vivido siempre sin mirar atras
  no hay razón para llorar.

No hay destino ni tiempo para soñar,
es mi castigo, nada ni nadie puede no me pueden obligar.

Libre, libre se nos va el momento
ahora es mi hora no perdamos tiempo.
Libre, libre se nos va el momento
ahora es mi hora no perdamos tiempo.

Solo

Deshinibido, peleando por mi lugar,
mal herido nada, ni nadie pueden no me pueden obligar.

Libre, libre se nos va el momento
ahora es mi hora no perdamos tiempo.
Libre, libre se nos va el momento
ahora es mi hora no perdamos tiempo.

Ohh oh oh, libre oh.

Riff 3 x 2
Riff 2 x 3
Riff 3 x 1
Riff 2 x 2


Riff:

   D  D  G# G  D  F  D  D  G# G  D  F  D
e|---------------------------------------------
B|---------------------------------------------
G|---------------------------------------------
D|-------13-12----10-------13-12----10---------
A|-12-12-11-10-12-8--12-12-11-10-12-8--12------
E|-10-10-------10----10-10-------10----10------

Riff2:

e|---------------------------------------------
B|---------------------------------------------
G|---------------------------------------------
D|---------------------------------------------
A|-8-8-8-8-7-5-5-8-8-8-8-7-5---8-10-8-7-5---5--
E|---------------------------8------------8----

Riff3:

e|---------------------------------------------
B|---------------------------------------------
G|---------------------------------------------
D|-/7-7-7-7-5-----7-7-7-7-5--------------------
A|------------8-8-----------8-8-8-10-8-7-5---5-
E|-----------------------------------------8---

(Esta variante se escucha en el minuto 4:05 y 4:41)

Arpegio:

e|-x-------5---x-------4---x-------3---x-------2-x-------1---x-------0---
B|-x-----------x-----------x-----------x---------x-----------x-----------
G|-7---7-----7-6---6-----6-5---5-----5-4---4-----3---3-----3-2---2-----2-
D|-7-7---7-----6-6---6-----5-5---5-----4-4---4---3-3---3-----2-2---2-----
A|-5-----------4-----------3-----------2---------1-----------0-----------
E|-x-----------x-----------x-----------x---------x-----------x-----------
Suggest correction
Give kudos to tab author, rate the tab!
1 2 3 4 5
comments
print report bad tab
guest
You may want to rate the tab now too:
select rating
Wanna post a correction for this tab? Suggest correction