Oops, an error
Loading. Please wait.

Puede Ser Amor Tab

6 views 1 this week
no commentswrite comment
1 2 3 4 5
3 more votes to show rating
add to favorites
×
Save as Personal and add changes to this tab that will be seen only by you. Learn more ›
×
You can save this tab as Personal to edit and correct it or add notes. All changes will be seen only by you. Learn more »
save as personal
new!
launch autoscroll
font size
0
reset
how to read this tab
guitar tuner
Autoscroll
slow
fast
+/-
esc
set tempo
stop
Intro:
[ch]A[/ch] [ch]Dsus2[/ch] x2

[ch]A[/ch]                 [ch]Dsus2[/ch]
   Tanto tiempo detrás
       [ch]A[/ch]          [ch]Dsus2[/ch]
Tantos años de amistad
        [ch]A[/ch]         [ch]Dsus2[/ch]
No lo puedes controlar
           [ch]A[/ch]             [ch]Dsus2[/ch]
De algo extraño quise escapar
           [ch]A  [ch]Dsus2            LA[/ch]     REsus2[/ch]
Puede ser amor...     puede ser amor

Que secretos tendrás
que ya no me quieres contar
es que acaso hay algo que ocultar?
has cambiado ya no eres igual

           [ch]A[/ch]
Puede ser amor
                   [ch]Dsus2[/ch]
Y no me quieres creer
              [ch]A[/ch]
Puedo ser tu amor
                  [ch]Dsus2[/ch]
Las capas de tu piel
            [ch]A[/ch]            [ch]E[/ch]
Puedes ser libre como el viento
     [ch]F#m[/ch]      [ch]Dsus2[/ch]
Pero déjate querer
           [ch]A[/ch]
Puede ser amor
      [ch]E[/ch]          [ch]Dsus2[/ch]
Y tus ojos no lo ven...

Solo:

e|--------------------------------------------------|------5--------------|
G|--------------------------------------------------|----5---5---5h7-5---5|
B|-------------------------------------------7h9-~7-|6h7-------6-------6--|
D|-7-7-9-9h11-~9---------------------------7--------|---------------------|
A|---------------7-7-7h9-9h11-9----------9----------|---------------------|
E|------------------------------9-7-9-10------------|---------------------|

e|------------------------------9-10-9----2----
G|---5h7-5----7-----/10---12-10--------10-3----
B|--------------7-------9-----------------2----
D|-7-------7------7----------------------------
A|---------------------------------------------
E|---------------------------------------------

[ch]F#5[/ch]             [ch]D5[/ch]
  Tienes miedo de aceptarlo
       [ch]A5[/ch]            [ch]E5[/ch]    Riff
  Y perder todo al final
[ch]F#5[/ch]              [ch]D5[/ch]
  El que no arriesga no gana
     [ch]A5[/ch]         [ch]E5[/ch]    Riff
  Lo dicen los demás

[ch]F#5[/ch]            [ch]D5[/ch]
  Pues de todos modos
          [ch]A5[/ch]        [ch]E5[/ch]    Riff
 Ya nunca más será igual
[ch]F#5     [ch]D5        SI[/ch] [ch]C#[/ch] MI[/ch]
 Asi que ven, decidete

Puede ser amor
Y no me quieres creer
Puedo ser tu amor
Las capas de tu piel
Puedes ser libre como el viento
Pero déjate querer
Puede ser amor
Y tus ojos no lo ven...

Riff:
e|-----------------
G|-----------------
B|-----------------
D|-----------------
A|-----------------
E|-0-0-0-0-5-4-5-2-

Nota:
La parte del solo encerrada entre | se toca tres veces.
Suggest correction
Give kudos to tab author, rate the tab!
1 2 3 4 5
comments
print report bad tab
guest
Wanna post a correction for this tab? Suggest correction