Oops, an error
Loading. Please wait.

Un Regalito Tab

14 views 1 this week
no commentswrite comment
1 2 3 4 5
3 more votes to show rating
add to favorites
launch autoscroll
font size
0
reset
how to read this tab
guitar tuner
×
Best way to learn
"Un Regalito"
Autoscroll
slow
fast
+/-
esc
set tempo
stop
bueno pues saludos a la mara:buba, carlos, marioco, pollo y wil

Afinacion normal:EADGBE

Intro:
Es cierto, no mas tenga dinero
Vengo y te llevo muy lejos
Vas a ver que es lo que puedo hacer yo

                              X3 y luego esto
E ||--------------------------|--------------------|
B ||--------------------------|--------------------|
G ||-------------------0h2-4--|----------------6---|
D ||----1-4----6-4---2--------|---1-4------------6-|
A ||--2------7----------------|--2-----7-6-4--4----|
E ||--------------------------|--------------------|

1er Verso:
Es cierto, no mas venga la suerte
Vengo y te llevo conmigo
Hasta el cielo te puedo llevar yo

                              X3
E ||--------------------------|----------------|
B ||--------------------------|----------------|
G ||-------------------0h2-4--|----------------|
D ||----1-4----6-4---2--------|---1-4----------|
A ||--2------7----------------|--2-----7-6-4---|
E ||--------------------------|----------------|


Coro:

 B         E         F#m        E              B      E  F#m
Yo sólo vivo para amarte y adorarte en cada instante yo, sólo yo
 B         E          F#m       E               B     E  F#m
Ven que tengo un regalito, para que estar más solitos yo, sólo yo

Riff despues del coro:

E ||--------------------------|-------------------|
B ||--------------------------|-------------------|
G ||-------------------0h2-4--|-------------------|
D ||----1-4----6-4---2--------|---1-4-------------|
A ||--2------7----------------|--2-----7-6-4--7/0-|
E ||--------------------------|-------------------|

2do y 3er Verso(Igual q el 1ero):
No es cierto?todo lo que dicen
No ves que tienen celos,
que te tenga solita para mí

Es cierto?otros han probado
Pero no tienen lo que yo tengo
Un cariño sincero para ti

Coro(igual q el anterior)X2

luego va esto:
Es cierto no puedo vivir sin tu amor sincero
No me arrepiento, no más se me quite el miedo
No me dejes sin tu amor?que muero de ganas

coro X2

Fin

Eso es toda la rola
comentarios escribanme a mi correo metalmago666@
Orale
Suggest correction
Give kudos to tab author, rate the tab!
1 2 3 4 5
comments
print report bad tab
guest
You may want to rate the tab now too:
select rating
Wanna post a correction for this tab? Suggest correction