Oops, an error
Loading. Please wait.

Como Sufro Tab

105 views 1 this week
no commentswrite comment
1 2 3 4 5
3 more votes to show rating
add to favorites
×
Save as Personal and add changes to this tab that will be seen only by you. Learn more ›
×
You can save this tab as Personal to edit and correct it or add notes. All changes will be seen only by you. Learn more »
save as personal
new!
launch autoscroll
font size
0
reset
how to read this tab
guitar tuner
Autoscroll
slow
fast
+/-
esc
set tempo
stop
Intro:

E|--3/4--3--1--3--4--3--1--1----
B|------------------------------
G|------------------------------

E|-1----------------------------
B|----3--5-7--5-3-----3-3-------
G|------------------------------

E|------------------------------
B|-7-5-3---5-7-5-3-----3-3------
G|------------------------------

E|-3-3---4-5-4--0-0-0------1h---
B|------------------------------
G|------------------------------

cancion:


Ay cómo sufro al recordar
                         Am
que me quisiste hasta el final
                     G7
y sin  embargo me alejé
                          F
sin darme cuenta de ese amor
                        E7
que hoy en mi vida es dolor.


Am                  Dm      E7
Quisiera verte una vez más
                Am
para decirte la verdad
                     G7
y si perdonas mi maldad
                     F
yo sé que aún puedo lograr
        E7        Am
contigo mi felicidad.


                     Dm G7
Cómo quisiera verte ahora
                      C     F
para decirte que lo siento
                         Dm
que sin tu amor me estoy muriendo
                       E7
y en tu recuerdo me sostengo.


Am                 Dm     G7
Decirte que te necesito
                     C       F
que quiero regresar contigo
                         Dm         E7
que mi alma ya no encuentra alivio
                   Am
ay cómo sufro al recordar.
se repite el Intro:

E|--3/4--3--1--3--4--3--1--1----
B|------------------------------
G|------------------------------

E|-1----------------------------
B|----3--5-7--5-3-----3-3-------
G|------------------------------

E|------------------------------
B|-7-5-3---5-7-5-3-----3-3------
G|------------------------------

E|-3-3---4-5-4--0-0-0------1h---
B|------------------------------
G|------------------------------

                    Gm     A7
Sé que es difícil para ti
                   Am
tener de nuevo mi querer
                       G7
si tú lo aceptas otra vez
                        F   A7
cuenta conmigo y cambiaré
           Am
te lo juro mi bien.

                      Dm
Como quisiera verte ahora...
Suggest correction
Give kudos to tab author, rate the tab!
1 2 3 4 5
comments
print report bad tab
guest
Wanna post a correction for this tab? Suggest correction