Oops, an error
Loading. Please wait.

Latin Lover Tab

version 1
version 1

Whole song

128 views 1 this week
no commentswrite comment
1 2 3 4 5
3 more votes to show rating
add to favorites
launch autoscroll
font size
0
reset
how to read this tab
guitar tuner
×
Best way to learn
"Latin Lover"
Autoscroll
slow
fast
+/-
esc
set tempo
stop
TEMA: LATIN LOVER
BANDA: MALANGA
ALBUN: TREN DE VUELTA (sin duda el mejor disco de malanga)
TABLATURA HECHA POR JOSE MIGUEL BOLIVAR(PRANSTER18@


INTRO
E----3-----33-------------------------------------------------------
B----4-----44------------00-----00----------------------------------
G----5-----55-----------X33--S--55----------------------------------  X4(FULL DISTORCIÒN)
D----5-----55-----------X22--S--44----------------------------------
A----3-----33-----------022--S--44----------------------------------
E----3-----33-----0-1-S-333--S--55----------------------------------


VERSO 1
 (UNA VEZ)  SE SONRIE..........................
E---9H8-----33----------------------------------------------------DISTORCION SUAVE A BAJO VOLUMEN
B---9H8-----44-----------00-----00--------------------------------
G---9H8-----55----------X33--S--55--------------------------------X4(SOLO LA PARTE igual al intro OK)
D-----------55----------X22--S--44- ------------------------------
A-----------33----------022--S--44--------------------------------
E-----------33----0-1-S-333--S--55--------------------------------


CORO
E--33333---11111---11111---33333---------------------------
B--44444---22222---11111---33333---------------------------
G--55555---33333---22222---44444---------------------------
D--55555---33333---33333---55555---------------------------X4 DISTORCIÒN
A--33333---11111---33333---55555---------------------------
E--33333---11111---11111---33333---------------------------


VERSO 2
(UNA VEZ)  ES EL TIPO QUE VA .........................
E---9H8-----33----------------------------------------------------
B---9H8-----44-----------00-----00--------------------------------
G---9H8-----55----------X33--S--55--------------------------------X4(SOLO LA PARTE igual al intro OK)
D-----------55----------X22--S--44- ------------------------------  
A-----------33----------022--S--44--------------------------------
E-----------33----0-1-S-333--S--55--------------------------------

CORO 2
E--33333---11111---11111---33333---------------------------
B--44444---22222---11111---33333---------------------------
G--55555---33333---22222---44444---------------------------
D--55555---33333---33333---55555---------------------------X6 DISTORCIÒN
A--33333---11111---33333---55555---------------------------
E--33333---11111---11111---33333---------------------------

SOLO (la verdad el solo original del cd  no lo tengo listo aun pero intenta usar la pentatonica 
de do,añade las notas fa,sol e improvisa con

el wah-wah en dos compases)
E-----------------------------------------------------------------------------------------
B-----------------------------------------------------------------------------------------
G-----------------------------------------------------------------------------------------
D-----------------------------------------------------------------------------------------
A-----------------------------------------------------------------------------------------
E-----------------------------------------------------------------------------------------


E-----------------------------------------------------------------------------------------
B-----------------------------------------------------------------------------------------
G-----------------------------------------------------------------------------------------
D-----------------------------------------------------------------------------------------
A-----------------------------------------------------------------------------------------
E-----------------------------------------------------------------------------------------

REFRAN
EL LATIN LOVER......................................................BLANCO PATENTE
E---2--------------------------------------------------------------------------------
B--------6----2-----------------------9S12-------------------------------------------
G--------------------------6S7----------------------------------9S7------------------
D-------------------------------------------------------12H10------------------------
A------------------------------------------------------------------------------------
E------------------------------------------------------------------------------------
ESTILO PEDRO NAVAJA........................................ES UN VERDADERO LATIN LOVER
E------11---17----------------------------------------------------6B-----------------
B--------14---------------X----------------------------------------------------------
G-------------------------X--------7-S-10-S-8-(MUY RAPIDO)---------------------------
D-------------------------X----------------------------------------------------------
A------------------------------------------------------------------------------------
E------------------------------------------------------------------------------------

CORO
E--33333---11111---11111---33333---------------------------
B--44444---22222---11111---33333---------------------------
G--55555---33333---22222---44444---------------------------
D--55555---33333---33333---55555---------------------------X6
A--33333---11111---33333---55555---------------------------
E--33333---11111---11111---33333---------------------------

FIN
E---9H8-----------
B---9H8-----------
G---9H8-----------
D-----------------
A-----------------
E-----------------


NOTAS
S:SLIDE DESLISATE DE UNA NOTA A OTRA
H:HAMMER(MARTILLO) TOCA UNA NOTA E INMEDIATAMENTE PISA LA QUE SIQUE
B:BEND ESTIRA LA CUERDA.
*EN EL CORO PUEDES DEJAR  SUSPENDIDOS LOS ACORDES Y DEJAR QUE SUENE 
LA DISTORCIÒN PARA DARLE UN SONIDO MAS INTERESANTE.

EL SOLO SI LO QUIERES EN TABLATURA ESCRIBE A MI E-MAIL 
PRANSTER18@ (igual el msm)
SI ERES DE VENEZUELA- PTO LA CRUZ Y ESTAS INTERESADO 
EN FORMAR UNA BANDA ESCRIBE A MI E-MAIL.
SALUDOS A LOS PANAS DE LA UDO . 		
cel:0416-781-2754
Suggest correction
Give kudos to tab author, rate the tab!
1 2 3 4 5
comments
print report bad tab
guest
You may want to rate the tab now too:
select rating
Wanna post a correction for this tab? Suggest correction