Oops, an error
Loading. Please wait.

Latin Lover Tab

version 2
version 2

Whole song

by Malanga
74 views 1 this week
no commentswrite comment
1 2 3 4 5
3 more votes to show rating
add to favorites
×
Save as Personal and add changes to this tab that will be seen only by you. Learn more ›
×
You can save this tab as Personal to edit and correct it or add notes. All changes will be seen only by you. Learn more »
save as personal
new!
launch autoscroll
font size
0
reset
how to read this tab
guitar tuner
Autoscroll
slow
fast
+/-
esc
set tempo
stop
Esta es una cancion q el riff de guitarra me encanta, y tambien el solo. el solo
es con un pedal de wah.... A qui les mando el riff de las estrofas,los acordes y el 
solo q mas quieren..........jajajales recuerdo q esta es una gran banda de venezuela
[ch]E[/ch] pais.......


Este es el riff del intro, y de las estrofas:

e/--------------3x3-1-----------------------/
b/--------------4x4-3-----------------------/
g/--------------5x5-3--------------3x3-3-3-5/  x 2 veces en el intro
d/--------------3x3-3--------------3x3-3-3-5/
a/--3(vibrato)---------------------1x1-1-1-3/
E/--------------------1-1-hammer-3----------/


Estrofas: las estrofas son iguales aqui les mando una 
para q se guien:


Cm             Gm                Cm                 Gm         
 NADIE SABE POR DONDE SE ESCONDE, EN LAS NOCHES Q LLEVAN
          Cm                  Gm                  Cm
 SU NOMBRE, Y ESE INSTINTO CARNAL TOCA CON SOLO MIRAR, 
                Gm
YA SE CREE UN GALAN SUPER HOMBRE......


CORO:
Cm            A#             F              G   Cm            
EL ES EL LATIN LOVER EL  CASANOVA DE LA CIUDAD, Y AUNQUE
          A#                     F             G               
 ACELERE EL PASO LE LLEGARA EL FRACASO DE SU DISFRAS, LATIN
      Cm  A#           F     G           Cm   Am            
LOVER SERA, LATIN LOVER SERA, LATINLOVER SERA, LATIN LOVER
F       G
SERAAAAA  AA


ESTE ES EL SOLO, PARA MI SUENA IGUAL:


e/-------------------------------------------11--/
b/--------11--11---13-13-11--------11--11--13--13/
G/slide-12--12--12---------slide-12--12--12------/
d/-----------------------------------------------/
a/-----------------------------------------------/
E/-----------------------------------------------/


e/-11-(13bend15)-13-11-13-(13bend15)-13-11---------11-----/
b/-----------------------------------------13-11-13--13-11/
g/--------------------------------------------------------/
d/--------------------------------------------------------/
a/--------------------------------------------------------/
E/--------------------------------------------------------/


e/--------------------------------------------------------------------/
b/-4-6-(6bend8)-(6bend8)-(6bend8)-(6bend8)----------------6---8--11-13/
g/----------------------------------------5vibrato--5-5-8---8---------/
d---------------------------------------------------------------------/
a/--------------------------------------------------------------------/
E/--------------------------------------------------------------------/


AQUI TIENEN CASI TODA LA CANCION Q MAS PUEDEN PEDIR,Y SI HAY ALGUN ERROR,
O UNA PETICION, O ALGUN COMENTARIO, NO ME ESCRIBAN POR Q ME DA LADILLA 
RESPONDER....... Y Q NO SE LES OLVIDE:  Q VIVA VENEZUEEEEEELA SI SEÑORRRRRR.....!!!!!
Suggest correction
Give kudos to tab author, rate the tab!
1 2 3 4 5
comments
print report bad tab
guest
Wanna post a correction for this tab? Suggest correction