Oops, an error
Loading. Please wait.

Si Tu No Estas Tab

version 1
version 1

Whole song

by Malanga
25 views 1 this week
no commentswrite comment
1 2 3 4 5
3 more votes to show rating
add to favorites
launch autoscroll
font size
0
reset
how to read this tab
guitar tuner
×
Best way to learn
"Si Tu No Estas"
Autoscroll
slow
fast
+/-
esc
set tempo
stop
Esta canción es buenisima, espero q haya valido 
la pena el esfuerzo xq suena demasiado arrecha.!!!!!!!!!!!!!

b= bending                  
~=dejar sonar
x= mute(no sonar)
h= hammer on
p= pull off
\= deslizar hacia abajo
/= deslizar hacia arriba
*= armonicos
v= vibrato

Intro:(acústica)
e|-5-5-5-x-x-7-7-7-x-x-2-2-2-x-x-7-7-7--7----
B|-5-5-5-x-x-9-9-9-x-x-3-3-3-x-x-9-9-10-10--- 
G|-6-6-6-x-x-9-9-9-x-x-4-4-4-x-x-9-9-9--9---- 
D|-7-7-7-x-x-9-9-9-x-x-4-4-4-x-x-9-9-9--9----
A|-7-7-7-x-x-7-7-7-x-x-2-2-2-x-x-7-7-7--7----
E|-5-5-5-x-x-x-x-x-x-x-x-x-x-x-x-x-x-x--x----

e|-5-5-5-x-x-7-7-7-x-x-2-2-2-x-x-7-7-7--7----
B|-5-5-5-x-x-9-9-9-x-x-3-3-3-x-x-9-9-10-10--- 
G|-6-6-6-x-x-9-9-9-x-x-4-4-4-x-x-9-9-9--9---- 
D|-7-7-7-x-x-9-9-9-x-x-4-4-4-x-x-9-9-9--9----
A|-7-7-7-x-x-7-7-7-x-x-2-2-2-x-x-7-7-7--7----
E|-5-5-5-x-x-x-x-x-x-x-x-x-x-x-x-x-x-x--x----

e|-2-2-x-x-5--5-5--2-2-x-x-5-----------------
B|-2-2-x-x-5--5-5--2-2-x-x-5~---------------- 
G|-2-2-x-x-6--6-6--2-2-x-x-6~---------------- 
D|-4-4-x-x-7--7-7--4-4-x-x-7~----------------
A|-4-4-x-x-7--7-7--4-4-x-x-7~----------------
E|-2-2-x-x-5--5-5--2-2-x-x-5~----------------

Intro(eléctrica)
e|-------------------------------------------------------------
B|-------------------------------------------------------------
G|-------------------------------------------------------------
D|----16b(18)(16)p14--16----14-16\18~--------------------------
A|-14--------------------14------------------------------------
E|-------------------------------------------------------------

e|-------------------------------------------------------------
B|------------------------------------------------------------- 
G|-------13-14-----14b(16)14--14 13---------------------------- 
D|----14-------16~------------------16-14-16-------------------
A|-16-----------------------------------------12\14/12---------
E|-----------------------------------------------------14~-/---


Verso:(acústica)
e|-0-0-0-0--2-2-2-2--0-0-0-0--2-2-2-2-------------------------
B|-0-0-0-0--2-2-2-2--0-0-0-0--2-2-2-2------------------------- 
G|-1-1-1-1--2-2-2-2--1-1-1-1--2-2-2-2------------------------- 
D|-2-2-2-2--4-4-4-4--2-2-2-2--4-4-4-4-------------------------
A|-2-2-2-2--4-4-4-4--2-2-2-2--4-4-4-4-------------------------
E|-0-0-0-0--2-2-2-2--0-0-0-0--2-2-2-2-------------------------

Verso:(eléctrica)
e|-----0-----0-----0-----0------------------------------------
B|------------------------------------------------------------
G|-1-----1-----1-----1-------1--------------------------------
D|---2-----2-----2-----2---2----------------------------------
A|------------------------------------------------------------
E|------------------------------------------------------------

e|-------------------------------------------
B|------------------------------------------- 
G|------------------------------------------- 
D|-----7-----7\6-----------------------------
A|-7\9---9~-------9--------------------------
E|-------------------------------------------

paso a paso cada instante..........
e|-2-2-2-2-2-2-2-2--5-5-5-5-5-5------------------------------
B|-2-2-2-2-2-2-2-2--5-5-5-5-5-5------------------------------ 
G|-2-2-2-2-2-2-2-2--6-6-6-6-6-6------------------------------ 
D|-4-4-4-4-4-4-4-4--7-7-7-7-7-7------------------------------
A|-4-4-4-4-4-4-4-4--7-7-7-7-7-7------------------------------
E|-2-2-2-2-2-2-2-2--5-5-5-5-5-5------------------------------

Y te llevo dentro............
e|-2-2-2-2-2-2-2-2--x-x-x-x-x-x------------------------------
B|-2-2-2-2-2-2-2-2--0-0-0-0-0-0------------------------------ 
G|-2-2-2-2-2-2-2-2--1-1-1-1-1-1------------------------------ 
D|-4-4-4-4-4-4-4-4--2-2-2-2-2-2------------------------------
A|-4-4-4-4-4-4-4-4--2-2-2-2-2-2------------------------------
E|-2-2-2-2-2-2-2-2--0-0-0-0-0-0------------------------------

Coro:(acústica)
e|-5-5-5-x-x-7-7-7-x-x-2-2-2-x-x-7-7-7-7-----
B|-5-5-5-x-x-9-9-9-x-x-3-3-3-x-x-9-9-9-9-----
G|-6-6-6-x-x-9-9-9-x-x-4-4-4-x-x-9-9-9-9-----
D|-7-7-7-x-x-9-9-9-x-x-4-4-4-x-x-9-9-9-9-----
A|-7-7-7-x-x-7-7-7-x-x-2-2-2-x-x-7-7-7-7-----
E|-5-5-5-x-x-x-x-x-x-x-x-x-x-x-x-x-x-x-x-----

final del coro:
e|-2~-x-2--2~-x-2----------------------------
B|-2~-x-2--2~-x-2--------------------------- 
G|-2~-x-2--2~-x-2-------------------------- 
D|-4~-x-4--4~-x-4----------------------------
A|-4~-x-4--4~-x-4----------------------------
E|-2~-x-2--2~-x-2----------------------------

Verso:(acústica)
e|-0-0-0-0--2-2-2-2--0-0-0-0--2-2-2-2-------------------------
B|-0-0-0-0--2-2-2-2--0-0-0-0--2-2-2-2------------------------- 
G|-1-1-1-1--2-2-2-2--1-1-1-1--2-2-2-2------------------------- 
D|-2-2-2-2--4-4-4-4--2-2-2-2--4-4-4-4-------------------------
A|-2-2-2-2--4-4-4-4--2-2-2-2--4-4-4-4-------------------------
E|-0-0-0-0--2-2-2-2--0-0-0-0--2-2-2-2-------------------------

Verso:(eléctrica)
e|-------------------------------------------
B|------------12*----------------------------- 
G|------------------------------------------- 
D|-----7~------------------------------------
A|-7\9---------------------------------------
E|-------------------------------------------


e|-----5---------2--------------------------------------------
B|---5---5-------2---------------------------------------------
G|---------------2---------------------------------------------
D|-7-------------4---------------------------------------
A|---------------4---------------------------------------------
E|------------2--2---------------------------------------------

e|-------------------------------------------
B|------------------------------------------- 
G|------------------------------------------- 
D|-6---7-6~----------------------------------
A|---7---------------------------------------
E|-------------------------------------------

paso a paso cada instante..........
e|-2-2-2-2-2-2-2-2--5-5-5-5-5-5------------------------------
B|-2-2-2-2-2-2-2-2--5-5-5-5-5-5------------------------------ 
G|-2-2-2-2-2-2-2-2--6-6-6-6-6-6------------------------------ 
D|-4-4-4-4-4-4-4-4--7-7-7-7-7-7------------------------------
A|-4-4-4-4-4-4-4-4--7-7-7-7-7-7------------------------------
E|-2-2-2-2-2-2-2-2--5-5-5-5-5-5------------------------------

Y te llevo dentro............
e|-2-2-2-2-2-2-2-2-------------------------------------------
B|-2-2-2-2-2-2-2-2------------------------------------------- 
G|-2-2-2-2-2-2-2-2--9-9-9-9-9-9------------------------------ 
D|-4-4-4-4-4-4-4-4--9-9-9-9-9-9------------------------------
A|-4-4-4-4-4-4-4-4--7-7-7-7-7-7------------------------------
E|-2-2-2-2-2-2-2-2--x-x-x-x-x-x------------------------------

Coro:
e|-5-5-5-x-x-7-7-7-x-x-2-2-2-x-x-7-7-7-7-----
B|-5-5-5-x-x-9-9-9-x-x-3-3-3-x-x-9-9-9-9-----
G|-6-6-6-x-x-9-9-9-x-x-4-4-4-x-x-9-9-9-9-----
D|-7-7-7-x-x-9-9-9-x-x-4-4-4-x-x-9-9-9-9-----
A|-7-7-7-x-x-7-7-7-x-x-2-2-2-x-x-7-7-7-7-----
E|-5-5-5-x-x-x-x-x-x-x-x-x-x-x-x-x-x-x-x-----

solo:(acustica)
e|-5-5-5-x-x-7-7-7-x-x-2-2-2-x-x-7-7-7-7-----
B|-5-5-5-x-x-9-9-9-x-x-3-3-3-x-x-9-9-9-9-----
G|-6-6-6-x-x-9-9-9-x-x-4-4-4-x-x-9-9-9-9-----
D|-7-7-7-x-x-9-9-9-x-x-4-4-4-x-x-9-9-9-9-----
A|-7-7-7-x-x-7-7-7-x-x-2-2-2-x-x-7-7-7-7-----
E|-5-5-5-x-x-x-x-x-x-x-x-x-x-x-x-x-x-x-x-----

solo:(eléctrica)
e|------------------------------------------------------
B|------------------------------------------------------ 
G|-16b(18)(16)---14-14-13-13-11-11-13-------------------
D|------------14v---------------------11vv--------------
A|------------------------------------------------------
E|------------------------------------------------------

e|--------------------------------------------------------
B|-------------------------------------------------------- 
G|-------------------------------14-16-16b(18)(16)p14h16-- 
D|-11-9----9h11p9-----9vv---------------------------------
A|------12---------12------14\16--------------------------
E|--------------------------------------------------------

e|-------------------------------------------
B|-14-15-14-15\-17vvv------------------------ 
G|------------------------------------------- 
D|-------------------------------------------
A|-------------------------------------------
E|-------------------------------------------

Coro:(acústica)
e|-5-5-5-x-x-7-7-7-x-x-2-2-2-x-x-7-7-7-7-----
B|-5-5-5-x-x-9-9-9-x-x-3-3-3-x-x-9-9-9-9-----
G|-6-6-6-x-x-9-9-9-x-x-4-4-4-x-x-9-9-9-9-----
D|-7-7-7-x-x-9-9-9-x-x-4-4-4-x-x-9-9-9-9-----
A|-7-7-7-x-x-7-7-7-x-x-2-2-2-x-x-7-7-7-7-----
E|-5-5-5-x-x-x-x-x-x-x-x-x-x-x-x-x-x-x-x-----

Final:(acústica)
e|-5~-2-2-2~--0~------0---------0--------0--------------5~----
B|-5~-2-2-2~--0~----------------------------------------5~---- 
G|-6~-2-2-2~--1~----------------------------------------6~---- 
D|-7~-4-4-4~--2~-----------------------7---7----7-------7~----
A|-7~-4-4-4~--2~----7---7----7----7--5--------4------9--7~----
E|-5~-2-2-2~--0~--5--------4-----------------------7----5~----
Suggest correction
Give kudos to tab author, rate the tab!
1 2 3 4 5
comments
print report bad tab
guest
You may want to rate the tab now too:
select rating
Wanna post a correction for this tab? Suggest correction