Oops, an error
Loading. Please wait.

Si Tu No Estas Tab

version 2
version 2

Whole song

by Malanga
22 views 1 this week
no commentswrite comment
1 2 3 4 5
3 more votes to show rating
add to favorites
launch autoscroll
font size
0
reset
how to read this tab
guitar tuner
×
Best way to learn
"Si Tu No Estas"
Autoscroll
slow
fast
+/-
esc
set tempo
stop
Tema: si tu no estas
Banda: malanga
Disco: tren de vuelta
Tablatura hecha por José Miguel Bolívar (pranter18@

INTRO 

ACUSTICA
 A-E-Bm-E  X 2 
F#m-A-F#m-A

ELECTRICA
E------------------------------------------------------------------------
B-----------------------------------10-11-----B11-11-10------------------
G-----B12-10---10--12-14-----10-----------12------------12-10-12---------
D--10--------10------------12-------------------------------------8/10/8-
A------------------------------------------------------------------------
E------------------------------------------------------------------------

VERSO 

ACUSTICA
E-D-F#m-E   X 2

ELECTRICA
         E                 D                  F#m                        E 
E---------0--------0----------2-------2---------------2------2------0---0-----0-
B-----------------------------------------3-------------------------------------
G---1---------1-----------2------2-----------------2-----2--------1---------1---
D------2--------2-----------0------O----------4------------4---------2------2---
A-------------------------------------------------------------------------------
E-------------------------------------------------------------------------------

PRE CORO (PASO A PASO.............................)

ACUSTICA
F#m-E-D-E

ELECTRICA
E---------------------
B---------------------
G--------1-------1--
D---4----2---4---2----
A---4----2---4---2----
E---2--------2-------

CORO

ACUSTICA
A-E-D-E-F#m-E-D-E-A

ELECTRICA
LOS MISMOS ACORDES DE LA PARTE ACUSTICA PERO TODOS CON BARRA 
(SOLO LOS MARCA NO LOS RASGUEA).

VERSO 2
ACUSTICA
E-D-F#m-E   X 2

ELECTRICA
         E                   D                F#m                        E 
E---------0--------0------------2------------------------2--------0--------0-----
B-----------------------------------------3--------------------------------------
G---1---------1----------2----------2--------------2----------1-------1----------
D------2--------2------------0---------------4---------------------------2-------
A--------------------------------------------------------------------------------
E--------------------------------------------------------------------------------

E-----------5-------------------------
B--------5----5-----------------------
G-------------------------------------
D----7----------------7/5/7--6--------
A----------------------------------7--
E-------------------------------------

PRE CORO

ACUSTICA
F#m-E-D-E

ELECTRICA
E---------------------
B---------------------
G--------1-------1--
D---4----2---4---2----
A---4----2---4---2----
E---2--------2-------
CORO

ACUSTICA
A-E-D-E-F#m-E-D-E-A

ELECTRICA
LOS MISMOS ACORDES DE LA PARTE ACUSTICA PERO TODOS CON BARRA 
(SOLO LOS MARCA NO LOS RASGUEA).

SOLO
ACUSTICA SIGUE CON EL CORO

ELECTRICA
solo:(eléctrica)
E|------------------------------------------------------
B|------------------------------------------------------ 
G|-16b(18)(16)---14-14-13-13-11-11-13-------------------
D|------------14v---------------------11v---------------
A|------------------------------------------------------
E|------------------------------------------------------

E|-----------------------------------------------------------------------------
B|-----------------------------------12-12b(arriba y abajo)12------------------ 
G|-------------------------------14-----------------------------14h16----------
D|-11-9----9h11p9-----9v-------------------------------------------------------
A|------12---------12------14\16-----------------------------------------------
E|-----------------------------------------------------------------------------

E|----9-10-9-10/12---------------------------
B|------------------------ ------------------
G|------------------------------------------- 
D|-------------------------------------------
A|-------------------------------------------
E|-------------------------------------------

CORO

ACUSTICA
A-E-D-E-F#m-E-D-E-A

ELECTRICA
LOS MISMOS ACORDES DE LA PARTE ACUSTICA PERO TODOS CON BARRA (SOLO LOS MARCA 
NO LOS RASGUEA).
Outro

Acustica
E|-----------0------------0----------0---------0--------------
B|------------------------ --------------------------------2--
G|------------------------------------------- -------------2--
D|------------------------------0-7----7----7----7---------2--
A|----0--7------7-----7----7------------4---------------------
E|-------------------4----------------------------------------

B: SIGNIFICA TENSAR LA CUERDA.
V: VIBRATO HACER VIBRAR LA CUERDA MOVIENDOLA.
H:HAMMER SIGNIFICA TOCA UNA NOTA Y LUEGO MARTILLA CON EL DEDO 
SOBRE LA NOTA QUE SIGUE. SI ERES DE VENEZUELA PTO LA CRUZ Y 
QUIERES FORMAR UNA BANDA ESCRIBE A MI E-MAIL O AL 04167812754.
SALUDOS A LOS PANAS DE LA UDO
Suggest correction
Give kudos to tab author, rate the tab!
1 2 3 4 5
comments
print report bad tab
guest
You may want to rate the tab now too:
select rating
Wanna post a correction for this tab? Suggest correction