Oops, an error
Loading. Please wait.

Por Las Orillas Del Mar Chords

by Malaria
14 views 3 this week
no commentswrite comment
1 2 3 4 5
3 more votes to show rating
add to favorites
launch autoscroll
font size
0
reset
transpose
0
reset
display chords
guitar tuner
×
Best way to learn
"Por Las Orillas Del Mar"
Autoscroll
slow
fast
+/-
esc
set tempo
stop
INTRO


e--3------3-----3-----3-------------3----3----3-----3------I
B--5--5-----5-----5-----5----------0--0----0----0-----0----I
G--5----5-----5-----5-----5-------0----0-----0----0-----0--I
D--------------------------------0-------------------------I
A-------------------------------2--------------------------I
E------------------------------3---------------------------I


e--7--7--7---5--5--5---3--3--3---2--2--2--3-----I
B-8--8--8---7--7--7---5--5--5---3--3--3---0-----I
G-----------------------------------------0-----I
D-----------------------------------------0-----I
A-----------------------------------------2-----I
E-----------------------------------------3-----I


                     G

POR LAS ORILLAS DEL MAR

                  Am
ESTA EL TIO SENTADITO

                     G
LAS AMACAS PUESTAS ESTAN

                      Am
Y EL TIO PIDE UN CIGARRITO

           G            D
O EN SU DEFECTO UN PESITO

                     Am
PARA COMPRARSE SU MEZCAL

                               G
OIGA TIO Y PA' QUE QUIERE EL MEZCALITO?

                    Am
PARA PONERME A DEBRALLAR

                   G
Y DIVERTIRME UN RATITO

                   Am
CON MI SOMBRA PLATICAR

         G          D
AUNQUE SEA, YO SOLITO


                     G
PARA COMPRARSE SU MEZCAL

                                 Am
OIGA TIO Y PA' QUE QUIERE EL MEZCALITO?

                    G
PARA PONERSE A DEBRALLAR

                       Am
AUNQUE YA ESTE BIEN VIEJITO

                    G
CON SU SOMBRA PLATICAR

        D            Am
AUNQUE SEA, USTED SOLITO


Am                       G
  CUANDO VA A LA CUESTA BAR

                                  Am
OIGA TIO USTED AGARRA CADA MEZCALITO

                    G
QUE YA NI PUEDE CAMINAR

                      Am
SE ME VA USTED DE LADITO

                      G
Y SE QUIERE METER AL MAR

       D          Am
CAMINANDO DESPACITO...


ESTA ROLA VA DEDICADA PARA LA FAMILIA DE FRANCISCO I MADERO(HEROES,IXT)
DE PARTE DEL PUTO DEL HUGO Y EL BETO
Suggest correction
Give kudos to tab author, rate the tab!
1 2 3 4 5
comments
print report bad tab
guest
You may want to rate the tab now too:
select rating
Wanna post a correction for this tab? Suggest correction