Oops, an error
Loading. Please wait.

Mision Amarte Tab

11 views 1 this week
no commentswrite comment
1 2 3 4 5
3 more votes to show rating
add to favorites
launch autoscroll
font size
0
reset
how to read this tab
guitar tuner
×
Best way to learn
"Mision Amarte"
Autoscroll
slow
fast
+/-
esc
set tempo
stop
INTRO

e--------------------------------------------------------------------
b--------------------------------------------------------------------
g-----5--7----------5--7----10--9--7--5--7--5---8--7--5--3--2--3-----
D--7--5--7----5--7--5--7----10--9--7--5--7--5---8--7--5--3--2--3-----
A--7--3--5----5--7--3--5-----8--7--5--3--5--3---6--5--3--1--0--1-----
E--5----------3--5---------------------------------------------------

e----------------------------------0---------------------------------
b----------------------------------0_1-------------------------------
g-----5--7----------5--8----7--5---2---------------------------------
D--7--5--7----5--7--5--8----7--5---2---------------------------------
A--7--3--5----5--7--3--6----5--3---0---------------------------------
E--5----------3--5---------------------------------------------------


Am            Dm
Ya no tengo duda,
Am            Dm
Soy un prisionero de tu vanidad,
Am            Dm
Es casi una locura,
Am              Dm
Que me tortura cada día y me hace mal,

F    E7           F                E7
Déjame sentirte así tan distante, tan lejos de mi.

Am            Dm
Al verte desnuda,
Am            Dm
Enciendes la lujuria de mi soledad,
Am            Dm
Tu piel casi oscura
Am            Dm
Me obsesiona cada día un poco más

F     E7         F                     E7
Déjame sentirme así vulnerable, pero sólo para ti


Am C       Dm    E7  Am
   Misión amarte,    así
      C         Dm
   Mi amor, my love,
   E7              Am
   Esa es mi obsesión,
   C          Dm  E7      Am
   Misión amarte,   solo a tí
      C       E7
   I love you so

Am
Soy el mercenario de tu amor y de tus besos
Dm
El culpable de los movimientos de tu lecho,
Am
Cuando me miras y me atrapas con tu sexo, yo
Dm
Me vuelvo un misionero de la curva de tu pecho,
Am
Estoy volando alrededor de tu planeta
Dm
Pero por tu amor me alejo cada vez más de la tierra,
Am
Tú eres mi jugo, mi razón, mi conejita perra,
Dm
Nunca pensé amarte, así de esta manera


F    E7           F                E7
Déjame sentirte así tan distante, tan lejos de mi.

Am C       Dm    E7  Am
   Misión amarte,    así
      C         F
   Mi amor, my love,
   E7              Am
   Esa es mi obsesión,
   C          Dm  E7      Am
   Misión amarte,   solo a tí
      C       E7
   I love you so

e----------------------------------0---------------------------------
b----------------------------------0_1-------------------------------
g-----5--7----------5--8----7--5---2---------------------------------
D--7--5--7----5--7--5--8----7--5---2---------------------------------
A--7--3--5----5--7--3--6----5--3---0---------------------------------
E--5----------3--5---------------------------------------------------


SOLO

e--7_8-8--7_8-8---------------------7_8-8--7_8-8----------8------
b---------------8-6---6-8-----6-9---------------8-6---6-8--------
g-------------------9-----7_9-----------------------9------------


e--10-8----8-----------------------------------------------------------
b-------10----10---8--10-8-----8---------------------------------------
g--------------------------10----10-7__9-------------------------------

CORO
Suggest correction
Give kudos to tab author, rate the tab!
1 2 3 4 5
comments
print report bad tab
guest
You may want to rate the tab now too:
select rating
Wanna post a correction for this tab? Suggest correction