Oops, an error
Loading. Please wait.

Cosas Que Suenan A Tab

584 views 1 this week
no commentswrite comment
1 2 3 4 5
3 more votes to show rating
add to favorites
×
Save as Personal and add changes to this tab that will be seen only by you. Learn more ›
×
You can save this tab as Personal to edit and correct it or add notes. All changes will be seen only by you. Learn more »
save as personal
new!
launch autoscroll
font size
0
reset
how to read this tab
guitar tuner
Autoscroll
slow
fast
+/-
esc
set tempo
stop
Notas:
Los acordes con * es que justo cuando suena ese acorde, una segunda
guitarra toca el punteo que he puesto debajo.
En el estribillo hay una serie de acordes de Sol que no se exactamente
cómo se llaman, así que los pondré aquí:

    G                Gadd2              G1

e ----3---          e ----3---          e ----3---
B ----3---          B ----3---          B ----3---
G ----0---          G ----2---          G ----0---
D ----0---          D ----0---          D ----2---
A ----2---          A ----0---          A ----0---
E ----3---          E ----3---          E ----3---


E         B
Yo nado en mares pequeños,
A
Y que todo salga bien.
E          B                A
Que si son grandes me pierdo
        D
Y luego nunca sé volver.
E           B              A
Verás, a mí ya no me van las pelis de miedo,
E          B                A          D
Los ojos tristes, las miradas que van a parar al suelo.
A           D        A
No vuelo en círculos cerrados.
D
Que no, que luego siempre se repiten.


E       B            A                        E
Mejor en bares pequeños donde el frío no te ve.
          B              A         D                E
Donde ya no llega el sueño y prometí portarme bien.
                 B               A                E
Verás, a mí lo que me va es contarte primero,
            B              A          D
Que yo soy todo lo que piden las princesas que yo quiero.
A         D       A
Si llueven pájaros mojados,
D
Tú y yo no iremos nunca donde dicen.


Estribillo

G                     Gadd2
Y por si acaso no recuerdas mis abrazos,
          G1              Gadd2*
Yo te dejo mi canción.
                         e ----------------------
                         B ---------0-----3-0----
                         G -----0-0---2-2--------
                         D ----------------------
                         A ----------------------
                         E ----------------------
G                       Gadd2
Guarda ese miedo que lo vela todo
               G1                   Gadd2*
Y solo se queda, solo se queda...
                                   e ----------------------
                                   B ---0-1-0--------------
                                   G ---------2-2-0--------
                                   D ----------------------
                                   A ----------------------
                                   E ----------------------

G                           Gadd2
Diciendo cosas que siempre suenan a triste,
G1               Gadd2*
Cosas que suenan a olvidar.
                 e ----------------------
                 B ---------0-----3-0----
                 G -----0-0---2-2--------
                 D ----------------------
                 A ----------------------
                 E ----------------------

G                     Gadd2
Todo ese ruido que el maldito invierno
          G1     Gadd2*
Nunca se lleva.
                 e ----------------------
                 B ---0-1-0--------------
                 G ---------2-2-0--------
                 D ----------------------
                 A ----------------------
                 E ----------------------


E                           B            A
Porque de mucho más grandes hemos salido.

Ven, cuando lleguen nos habremos ido...
E                            B                  A
Donde las cosas que pasan se ahogan con un buen café.
E             B               A                  E
Verás, a mí lo que me va es tumbarte en el suelo,
          B             A       D
Para decir con la mirada lo que con mi voz no puedo.
A            D      A
Ya no seremos nunca extraños,
D
Ya no seré quien siempre te lo dice.


Estribillo

G                      Gadd2
Y haré que el frío nunca encuentre tus abrazos
G1                      Gadd2*
Y no llegue a mi canción.
                         e ----------------------
                         B ---------0-----3-0----
                         G -----0-0---2-2--------
                         D ----------------------
                         A ----------------------
                         E ----------------------

G                      Gadd2
Guarda ese miedo que lo vela todo
               G1                Gadd2*
Y solo se queda, solo se queda...
                                  e ----------------------
                                  B ---0-1-0--------------
                                  G ---------2-2-0--------
                                  D ----------------------
                                  A ----------------------
                                  E ----------------------

G                           Gadd2
Diciendo cosas que siempre suenan a triste,
G1               Gadd2*
Cosas que suenan a olvidar.
                 e ----------------------
                 B ---------0-----3-0----
                 G -----0-0---2-2--------
                 D ----------------------
                 A ----------------------
                 E ----------------------

G                     Gadd2
Todo ese ruido que el maldito invierno
             G1              Gadd2
Nunca se lleva, nunca se lleva
                             e ----------------------
                             B ---0-1-0--------------
                             G ---------2-2-0--------
                             D ----------------------
                             A ----------------------
                             E ----------------------


    G        Gadd2    G1       Gadd2    G        Gadd2    G1       Gadd2
e -----------------------------------------------------------------------
B --0-----0--2--0-----------------------0-----0--2--0--------------------
G -----2-----------2--0-----0--2--0--------2-----------2--0--2--0--2--0--
D -----------------------2-----------2-----------------------------------
A -----------------------------------------------------------------------
E -----------------------------------------------------------------------


G                       Gadd2             G1              Gadd2
Dicen cosas que siempre suenan a triste.


E           B          A               E
Nunca llegué en el momento equivocado,
                  B         A
Porque siempre caí abriendo círculos cerrados.
      E               B                A                 E
Verás. Verás, a mí lo que me va es colgarme en tu vuelo,
            B         A                   D
Para pedirte desde ahí que sigas, que sigas siendo lo que quiero.


Estribillo

G                     Gadd2
Y por si acaso no recuerdas mis abrazos,
          G1            Gadd2*
yo te dejo mi canción.
                        e ----------------------
                        B ---------0-----3-0----
                        G -----0-0---2-2--------
                        D ----------------------
                        A ----------------------
                        E ----------------------

G                       Gadd2
Guarda ese miedo que lo vela todo
               G1                Gadd2*
Y solo se queda, solo se queda...
                                  e ----------------------
                                  B ---0-1-0--------------
                                  G ---------2-2-0--------
                                  D ----------------------
                                  A ----------------------
                                  E ----------------------

G                           Gadd2
Diciendo cosas que siempre suenan a triste,
G1               Gadd2*
Cosas que suenan a olvidar.
                 e ----------------------
                 B ---------0-----3-0----
                 G -----0-0---2-2--------
                 D ----------------------
                 A ----------------------
                 E ----------------------

G                     Gadd2
Todo ese ruido que el maldito invierno
          G1     Gadd2*
Nunca se lleva.
                 e ----------------------
                 B ---0-1-0--------------
                 G ---------2-2-0--------
                 D ----------------------
                 A ----------------------
                 E ----------------------


G       Gadd2      G1     Gadd2
                       Y luego nunca sé volver
G       Gadd2      G1     Gadd2
                 Y siguen, y siguen, y siguen

      G            Gadd2                      G1
Diciendo cosas que siempre suenan a triste...
Gadd2                   G
Y que suenan a olvidar
Gadd2                 G1     Gadd2
Que suenan a olvidar

     G
e ---3--- ^
B ---3--- |
G ---0--- |
D ---0--- |
A ---3--- |
E ---3--- |
Suggest correction
Give kudos to tab author, rate the tab!
1 2 3 4 5
comments
print report bad tab
guest
Wanna post a correction for this tab? Suggest correction