Oops, an error
Loading. Please wait.

En Tu Memoria Tab

5 views 1 this week
no commentswrite comment
1 2 3 4 5
3 more votes to show rating
add to favorites
launch autoscroll
font size
0
reset
how to read this tab
guitar tuner
Autoscroll
slow
fast
+/-
esc
set tempo
stop
RIFF 1
 E|-------------------------------------------
 B|-------------------------------------------
 G|-------------------------------------------
 D|------------------------------------7------
 A|--2-2----2--5-4-2-4-2-----2-2----2--5-7----
 E|--0-0-3~-0------------3~--0-0-3~-0----5----


RIFF 2
 E|-------------------------------------------
 B|-------------------------------------------
 G|-------------------------------------------
 D|-------------------------------------------
 A|--2-2----2--5-4-2--------------------------
 E|--0-0-3~-0--------3-4-5~-------------------


INTRO: RIFF 1

RIFF 1
Siempre fuiste el mismo terco
siempre quisiste tener razón
RIFF 1
Viste el abismo aún mas allá
No te quedaste con los de atrás

RIFF 2
Siente el rugido de aquel motor
RIFF 2
donde creó su mejor canción
RIFF 2
Y entre el rock y la velocidad
RIFF 2
hoy ya es un inmortal

  [ch]D5   [ch]A5[/ch]   MI5[/ch]
Y me vas a dejar
[ch]D5    [ch]A5[/ch]        MI5[/ch]
que me pierda en vos
  [ch]D5   [ch]A5[/ch]   MI5[/ch]
Y no voy a dejar
        [ch]G5[/ch]         [ch]D5[/ch]
que te quiten tu grandeza para olvidarte

BASE RIFF 1

[ch]C5                                  SOL5[/ch]
    Y que en tus palabras se haga la luz
para vernos mejor
[ch]C5                         LA5[/ch]
    Y que en tu mirada el recuerdo
          [ch]F5   [ch]C5[/ch]   SOL5[/ch]
es el principio del final
      [ch]A5        [ch]F5[/ch]   [ch]C5[/ch]   SOL5[/ch]
Del motor que nunca se detendrá

RIFF 1
Y esa distancia nos unirá
en esa ruta donde hay un bar
RIFF 1
La sangre llega a mi corazón
y mis palabras serán tu voz
RIFF 2
Siente el rugido de aquel motor
RIFF 2
donde creó su mejor canción
RIFF 2
Y entre el rock y la velocidad
RIFF 2
hoy ya es un inmortal

  [ch]D5   [ch]A5[/ch]   MI5[/ch]
Y me vas a dejar
[ch]D5    [ch]A5[/ch]        MI5[/ch]
que me pierda en vos
  [ch]D5   [ch]A5[/ch]   MI5[/ch]
Y no voy a dejar
        [ch]G5[/ch]         [ch]D5[/ch]
que te quiten tu grandeza para olvidarte

BASE RIFF 1

      [ch]A5        [ch]F5[/ch]   [ch]C5[/ch]   SOL5[/ch]
Del motor que nunca se detendrá
       [ch]A5       [ch]F5[/ch]   [ch]C5[/ch]   SOL5[/ch]
y a la vez de mi mente no se fué


Y SI TE DIGO QUE SUENA JOYA???
Juanjo
Suggest correction
Give kudos to tab author, rate the tab!
1 2 3 4 5
comments
print report bad tab
guest
Wanna post a correction for this tab? Suggest correction