Oops, an error
Loading. Please wait.

Hacia El Norte Tab

20 views 1 this week
no commentswrite comment
1 2 3 4 5
3 more votes to show rating
add to favorites
launch autoscroll
font size
0
reset
how to read this tab
guitar tuner
×
Best way to learn
"Hacia El Norte"
Autoscroll
slow
fast
+/-
esc
set tempo
stop
INTRO

 E|---------------------------------------------------
 B|---------------------------------------------------
 G|---------------------------------------------------
 D|---------------------------------------------------
 A|-2-2-----2p0-----5p0-4p0-2p0---2-2-----2p0....-----
 E|-0-0-3p0-----3p0-------------3-0-0-3p0-------------


 E|-------------------------------------------------------
 B|-------------------------------------------------------
 G|-------------------------------------------------------
 D|-------------------------------------------------------
 A|-2-2-----2p0-----5p0-4p0-2p0---2-2-----2p0---2-5-6-7---
 E|-0-0-3p0-----3p0-------------3-0-0-3p0-----3-0-3-4-5---


[ch]E5[/ch]
Tengo el sur a mis espaldas
[ch]F#5[/ch]
la mirada al horizonte
   [ch]D5[/ch]
me gusta el viento,
[ch]A5[/ch]                      [ch]E5[/ch]
    me gusta el riesgo y voy
Hacia un lugar que está muy alto
donde nunca yo he llegado
pero es un lugar que yo he soñado

          [ch]B5[/ch]
Y ahora estoy donde quise nacer
                             [ch]D5[/ch]
Las montañas y el viento resecan mi piel
[ch]A5[/ch]              [ch]E5[/ch]
    estoy sin palabras
  [ch]B5[/ch]
Y con los valles de estas puna
con su encanto y con su altura
[ch]D5              [ch]A5[/ch]         MI5[/ch]
    voy a enloquecer para volver

[ch]D5  [ch]F#5  SOL5[/ch]   LA5[/ch]
Sien- to    el    valle calchaquí
         [ch]E5[/ch]
masco su coca
y desgarro mis verdades
Sobrevuelo con la ficción
Y con mis alas,
quiero llegar al más allá


Y de regreso a esta ciudad pude comprender
que en el norte la cosa huele bien
Y sin saber donde estoy hoy,
no se muy bien,
buscaré una excusa y volveré


ESPERO LES SIRVA. CUALQUIER COSA MANDEN MAIL...
JUANJO
VILLA CELINA
Suggest correction
Give kudos to tab author, rate the tab!
1 2 3 4 5
comments
print report bad tab
guest
You may want to rate the tab now too:
select rating
Wanna post a correction for this tab? Suggest correction