Oops, an error
Loading. Please wait.

Peli Del Norte Chords

10 views 1 this week
no commentswrite comment
1 2 3 4 5
3 more votes to show rating
add to favorites
launch autoscroll
font size
0
reset
transpose
0
reset
display chords
guitar tuner
Autoscroll
slow
fast
+/-
esc
set tempo
stop
Help us to improve Ultimate-Guitar.com Take our survey!
×
INTRO

10---------------------------|--------------------|
20---------------------------|--------------------|
30-----------------7-7-7-7---|---------------3----|
40-----------------7-7-7-7---|---------------3----|
50-------------3---5-5-5-5---|------------3--1----|
60-------3--5----------------|------3--5----------|
                             x3

  (Todo sobre riff de intro)
Desde muy lejos vió
resplandecer la luz
que iluminó el sabor
de su canción...
Quiso saber porque
su corazon latió
cuando probo el dolor
al despegar...
al despegar...!!!!


F        C             A#
Y porque no un papel?
para esa noche de perdedores
F        C             A#
y porque no una palabra de aliento
F        C             A#
y porque no una guitarra que hable por mi...
F        C             A#
Sera porque fue la solución la que me llevo
hasta vos...

Riff intro

  (Todo sobre riff de intro)
Y ahora que soñé
tenerla entre mi piel
ella no va a aguntar
tanta maldad...
Y termino por ser
una leyenda mas
de este viejo final
que le sonrió...
que le sonrió...!!!!

F        C             A#
Y porque no un papel?
para esa noche de perdedores
F        C             A#
y porque no una palabra de aliento
F        C             A#
y porque no una guitarra que hable por mí...
F        C             A#
Sera porque fue la solución la que me llevo
hasta vos...

Puente: D
(Riff 2)
10--------|---------|-----|-----------|---------------|
20--------|---------|-----|-----------|---------------|
30-----7--|---------|--7--|-----------|---------------|
40-----7--|----3----|--7--|---5--3--2-|---------------|
50-----5--|-------5-|--5--|-----------|---------------|
60--------|---------|-----|-----------|---------------|
           x5        x1    x5


  (Todo sobre riff 2)
Desde muy lejos vió
resplandecer la luz
que ilumino el sabor
    A#
de su cancion...
Quiso saber porque
su corazon latió
cuando probó el dolor
al despegar...
al despegar...
al despegar...!!!!

F        C             A#
Y porque no un papel?
para esa noche de perdedores
F        C             A#
y porque no una palabra de aliento
F        C             A#
y porque no una guitarra que hable por mí...
F        C             A#
Sera porque fue la solución la que me llevo
hasta vos...

Final:
(F-C-A#)x4
(Riff intro)x2


CUALQUIER COSA ME AGREGAN AL MSN GENTE(tebyg@
NOS ESTAMOS VIENDO!
Teby!
Suggest correction
Give kudos to tab author, rate the tab!
1 2 3 4 5
comments
print report bad tab
guest
You may want to rate the tab now too:
select rating
Wanna post a correction for this tab? Suggest correction