Oops, an error
Loading. Please wait.

El Chulo Chords

148 views 1 this week
no commentswrite comment
1 2 3 4 5
3 more votes to show rating
add to favorites
launch autoscroll
font size
0
reset
transpose
0
reset
display chords
guitar tuner
×
Best way to learn
"El Chulo"
Autoscroll
slow
fast
+/-
esc
set tempo
stop
INTRO:
 
 ( 2X VECES )                  ( 4X VECES ) 

e|---5-5---------5-5-------||----------------|
b|-3-----3-2---3-----3-2-3-||----------------|
g|-----------3-------------||-2-2-3-2-0----2-|
D|-------------------------||------------3---|
A|-------------------------||----------------|
E|-------------------------||----------------|

Dm
Viene aquel chulo cruzando la Alameda
       F
con la changuita que ya ligo
Dm                 F
Se faja, se peina, nomas una chaineada,
Dm                   F
que facha, que tipo, le tiran unas chavas.

Dm                          F
Tiene 10 a~os dejados en el tanque

aunque, me cai, ni la sintio.
Dm               F
Poncha que rola, prendiendo la choya
   Dm                F
de aquel que se deje encandilar.

CORO:
A         D      A             D
Viene caminando, casi esta bailando,
A            D       A              D
chutos pasan raudos, los vienes driblando.
A
Se va con la cholita,
D
se chuta una viejita,
A
se tira un chanflazo,
D
ahora un cabezaso
A        D      A         D
y vive goleando la canija vida.

Dm                 F
Sus manos roladas, su cara charrasqueada,
Dm                 F
sus ojos, !aguas!, te cachan de volada.

Dm 
Su mujer baila en el congal Tijuana,
       F
ahi se coopera con la luz.
Dm             F
El alma solita aguanta siempre la vara,
Dm                   F
el miedo no cabe, se va a la tiznada.
Dm
A A tiznada
Dm
A A tiznada
Dm
A A tiznada

( 2X VECES )                  ( 4X VECES ) 

e|---5-5---------5-5-------||----------------|
b|-3-----3-2---3-----3-2-3-||----------------|
g|-----------3-------------||-2-2-3-2-0----2-|
D|-------------------------||------------3---|
A|-------------------------||----------------|
E|-------------------------||----------------|

CORO:
A         D      A             D
Viene caminando, casi esta bailando,
A            D       A              D
chutos pasan raudos, los vienes driblando.
A
Se va con la cholita,
D
se chuta una viejita,
A
se tira un chanflazo,
D
ahora un cabezaso
A        D      A         D
y vive goleando la canija vida.
Suggest correction
Give kudos to tab author, rate the tab!
1 2 3 4 5
comments
print report bad tab
guest
You may want to rate the tab now too:
select rating
Wanna post a correction for this tab? Suggest correction