Oops, an error
Loading. Please wait.

El Cocodrilo Tab

44 views 1 this week
no commentswrite comment
1 2 3 4 5
3 more votes to show rating
add to favorites
launch autoscroll
font size
0
reset
how to read this tab
guitar tuner
×
Best way to learn
"El Cocodrilo"
Autoscroll
slow
fast
+/-
esc
set tempo
stop
Esta rola es la neta de todo el disco ¨Mostros¨ Espero la disfruten.  
Recuerden que esta es solo una aproximacion a la cancion.

   EADGBE
B= 799877
A= 577655
G= 355433

Verso
    B      A       B      
E||-7--7---5--5---7--7---9--9---
B||---7------5------7------7----
G||-----------------------------
D||-----------------------------
A||-----------------------------
E||-----------------------------

En ¨El Icuiricui, El Sacalcachimba¨
 solo sigue el ritmo con los acordes B y A.

Despues de los solos de sax y piano y al final toca esto 
    G            A
E||-3--3-----3-3-5-
B||-3--3-----3-3-5-
G||-4--4-----4-4-6-
D||-5--5-----5-5-7-
A||-5--5-----5-5-7-
E||-3--3-----3-3-5-

    G            A
E||-3--3-----3-3-5-5-
B||-3--3-----3-3-5-5-
G||-4--4-----4-4-6-6-
D||-5--5-----5-5-7---
A||-5--5-----5-5-7---
E||-3--3-----3-3-5---

    G            A
E||-3--3-----3-3-5-
B||-3--3-----3-3-5-
G||-4--4-----4-4-6-
D||-5--5-----5-5-7-
A||-5--5-----5-5-7-
E||-3--3-----3-3-5-

    G            A    B
E||-3--3-----3-3-5----7-
B||-3--3-----3-3-5----7-
G||-4--4-----4-4-6----8-
D||-5--5-----5-5-7----9-
A||-5--5-----5-5-7----9-
E||-3--3-----3-3-5----7-

Y eso es todo.  Por cierto, muchos no lo saben pero el disco Mostros, 
tiene el bonus track: Sirena (que sigue dos minutos despues de que acaba
la cancion Mostros, y que es una rola excelente). 

*****PD****** Que muera el pinche puñal de Ernesto Zedillo que le 
encanta sentarse en un clavo y decir pura pendejada priista. 
ChInGa Tu PuTiSiMa MaDrE PrEsIdEnTe De MiErDa!!
 
  Atte. Mexico
Suggest correction
Give kudos to tab author, rate the tab!
1 2 3 4 5
comments
print report bad tab
guest
You may want to rate the tab now too:
select rating
Wanna post a correction for this tab? Suggest correction