Oops, an error
Loading. Please wait.

Kumbala Bass Tab

version 1
version 1

Whole song

Interactive

1,071 views 9 this week
no commentswrite comment
1 2 3 4 5
2 more votes to show rating
add to favorites
launch autoscroll
font size
0
reset
guitar tuner
Autoscroll
slow
fast
+/-
esc
set tempo
stop
Help us to improve Ultimate-Guitar.com Take our survey!
×
observe las otras tabs y estan mal, por su puesto que no digo
que mi tab este al 100%, alomejor a de tener unos 2 que 3 errores
pero no creo, si la analizan con muy buen oido y escuchan el
bajo de la cancion veran que esta correcta.

           X8        X2<---------X2---------->
G]-----------|---------|----------|----------]
D]-----------|----1--4-|--------2-|---1--4---]
A]-------2---|-2-------|--0--3----|-2--------]
E]-0--3------|---------|----------|----------]

         X2
G]---------]---]
D]---------]---]
A]-------2-]---]
E]-0--3----]-0-]

           X2         X2         X2          X2
G]------------]---------]----------]----------]
D]------------]----1--4-]-------2--]----------]
A]-----------2]-2-------]-0--3-----]----2--5--]
E]-----0--3---]---------]----------]-3--------]

           X2        X4         X2
G]-----------]---------]----------]----------]---------]---------]
D]----1--4---]---------]----1---4-]--------2-]----1--4-]---------]
A]-2---------]-------2-]-2--------]--0--3----]-2-------]-------2-]
E]-----------]-0--3----]----------]----------]---------]-0--3----]

G]-----------]
D]----1--4---]
A]-2---------]
E]-----------]

            <------------------------X2-------------------------->
          X2          X2        X2        X2        X2         x4
G]----------]-----------]---------]---------]---------]----------]
D]----------]-----1--4--]-------2-]---------]----1--4-]----------]
A]-------2--]--2--------]-0--3----]----2--5-]-2-------]-------2--]
E]-0--3-----]-----------]---------]-3-------]---------]-0--3-----]

          x2
G]----------]-----------]---------]-----------]
D]----1--4--]-------2---]----1--4-]-----------]
A]-2--------]-0--3------]-2-------]-------2--2]
E]----------]-----------]---------]-0--3------]

          X2          X2
G]----------]-----------]---------]------------]
D]----------]----1--4---]-------2-]----1--4--4-]
A]-------2--]-2---------]-0--3----]-2----------]
E]-0--3-----]-----------]---------]------------]


 <----------------------X2----------------------------->
G]----------]-----------]---------]---------]----------]
D]----------]-----------]---------]---------]----------]
A]----------]-2x13------]-0x13----]-2x13----]-----2X9--]
E]-0X13-----]-----------]---------]---------]-0x9------]


G]----------]-----------]---------]---------]-----------]
D]----------]-----------]---------]---------]-----------]
A]----------]-2x13------]-0x13----]-2x13----]-----2x10--]
E]-0X13-----]-----------]---------]---------]-0x9-------]


           X8        X2<---------X2---------->
G]-----------|---------|----------|----------]
D]-----------|----1--4-|--------2-|---1--4---]
A]-------2---|-2-------|--0--3----|-2--------]
E]-0--3------|---------|----------|----------]

           X8
G]-----------]---]
D]-----------]---]
A]-------2---]---]
E]-0--3------]-0-]


si tienen dudas,o correcciones mandenme un email o agreguenme al msn. ^_^

nota: los compases que estan bajo esta cosa <----------X2--------->
significa que se repite por las veces que dice el numero,
pero en esta tab todos se repiten 2 veces y las notas que tengan una
x a su lado y un numero, significa el nuero de veces que la
tienes que tocar.
(ejemplo E]---0x13---]) significa que tienes que tocar
la cuerda 4 osea mi al aire 13 veces.
Suggest correction
Give kudos to tab author, rate the tab!
1 2 3 4 5
comments
print report bad tab
guest
You may want to rate the tab now too:
select rating
Wanna post a correction for this tab? Suggest correction