Oops, an error
Loading. Please wait.

Kumbala Tab

version 3
version 3

Whole song

Interactive

1,070 views 18 this week
no commentswrite comment
1 2 3 4 5
3 more votes to show rating
add to favorites
launch autoscroll
font size
0
reset
how to read this tab
guitar tuner
Autoscroll
slow
fast
+/-
esc
set tempo
stop
Help us to improve Ultimate-Guitar.com Take our survey!
×
Bueno la neta pasaba por aquí y ninguna trascripción me convenció
del todo, y como tenía tiempo me dediqué a hacer una que aunque no
se si esté del todo bien se oye igual que en la canción solo es de
que la escuchen bien esta muy fácil y la puse muy detallada de
principio a fin para aquellos que empiezan...

NOTA: un número después de una ?x? es el número de veces
que se toca lo que está antes de la ?x?, creo que es obvio pero
talvez algunos no sepan...suerte
<------------------------------------------------------------------>
Aquí tienen los acordes que se usan durante la canción

      Em      B7      Am
e||---0---|---2---|---0---|
B||---0---|---0---|---1---|
G||---0---|---2---|---2---|
D||---2---|---1---|---2---|
A||---2---|---2---|---0---|
E||---0---|---0---|---0---|
<------------------------------------------------------------------>
<------------------------------------------------------------------>
Intro

     Em              B7               Am          B7
e||-----------|    |-----------|    |-----------|-----------|
B||-----------|    |-----------|    |-----------|-----------|
G||-----------|    |-----------|    |-----------|-----------|
D||-----------|    |-----1--4--|    |--------2--|-----1--4--|
A||-----3--2--|    |--2--------|    |--0--3-----|--2--------|
E||--0--------|x8  |-----------|x2  |-----------|-----------|x2

     Em
e||-----------|    |----12--14--15--14--12------------------12--|
B||-----------|    |----12------------------15--12----------12--|
G||-----------|    |----12--------------------------14--12--12--|
D||-----------|    |--------------------------------------------|
A||-----3--2--|    |--------------------------------------------|
E||--0--------|x2  |-0------------------------------------------|

<------------------------------------------------------------------>
I-.

     Em              B7                      Am
     Luz,           roja es la luz, luz de neón
e||-----------|    |-----------|          |-----------|
B||-----------|    |-----------|          |-----------|
G||-----------|    |-----------|          |-----------|
D||-----------|    |-----1--4--|          |--------2--|
A||--------2--|    |--2--------|          |--0--3-----|
E||--0--3-----|x2  |-----------|x2        |-----------|x2

            Em
que anuncia el lugar: Baile Kumbala Bar
       e||-----------|
       B||-----------|
       G||-----------|
       D||-----------|
       A||-----2--5--|
       E||--3--------|x2

    B7                       Em
y adentro la noche es música y pasión
e||-----------|           |-----------|
B||-----------|           |-----------|
G||-----------|           |-----------|
D||-----1--4--|           |-----------|
A||--2--------|           |--------2--|
E||-----------|x2         |--0--3-----|x2

<------------------------------------------------------------------>
II-.

    Em                B7
e||-----------|    |-----------|
B||-----------|    |-----------|
G||-----------|    |-----------|
D||-----------|    |-----1--4--|
A||--------2--|    |--2--------|
E||--0--3-----|x2  |-----------|x2

     Am          B7          Em          B7
e||-----------|-----------|-----------|-----------|
B||-----------|-----------|-----------|-----------|
G||-----------|-----------|-----------|-----------|
D||--------2--|-----1--4--|-----------|-----1--4--|
A||--0--3-----|--2--------|--------2--|--2--------|
E||-----------|-----------|--0--3-----|-----------|

<------------------------------------------------------------------>
III y IV-. *(Se tocan igual que el I)

Em                B7                           Am
Sol, no entiendes lo que pasa aquí, esto es la noche
         Em
y de la noche son las cosas del amor,
    B7                               Em
el corazón a media luz siempre se entregará.


Em             B7                          Am
Mar, todo el ambiente huele a mar, mucho calor,
        Em
sudores en la piel, sudor sabor a sal,
  B7                                  Em
y en la pista una pareja se vuelve a enamorar.

<------------------------------------------------------------------>
V-. *(Esta parte va hablada)

     Em                           B7
        Sol, no entiendes lo que pasa aquí, esto es la noche
e||-----------|                |-----------|
B||-----------|                |-----------|
G||-----------|                |-----------|
D||-----------|                |-----1--4--|
A||--------2--|                |--2--------|
E||--0--3-----|x2              |-----------|x2

     Am                B7          Em              B7
         y de la noche son... las cosas del amor...  oye...
e||-----------|     |-----------|------------------2-|
B||-----------|     |-----------|------------------0-|
G||-----------|     |-----------|------------------2-|
D||--------2--|     |-----1--4--|------------------1-|
A||--0--3-----|     |--2--------|-------------2----2-|
E||-----------|     |-----------|---0----3---------0-|


     Em               B7               Am          B7       Em
e||-----------|    |-----------|    |-----------|-----------0-|
B||-----------|    |-----------|    |-----------|-----------0-|
G||-----------|    |-----------|    |-----------|-----------0-|
D||-----------|    |-----1--4--|    |--------2--|-----1--4--2-|
A||--------2--|    |--2--------|    |--0--3-----|--2--------2-|
E||--0--3-----|x2  |-----------|x2  |-----------|-----------0-|

<------------------------------------------------------------------>
VI-. *(Aquí cambia de ritmo)

     Em    B7    Am   B7   Em   B7
e||----------------------------------|
B||----------------------------------|
G||----------------------------------|
D||----------------------------------|
A||--------2x16--0x8--2x8-------2x8--|   *esto no se si va así
E||--0x16------------------0x8-------|    pero se oye bien

<------------------------------------------------------------------>
VII y VIII-. *(Se toca también el VI)

Em         B7
Una risa, una caricia,
Am                  B7                Em   B7
y en la pista una pareja se vuelve a enamorar.


Em                           B7
Un sabroso y buen danzón, a media luz el corazón
     Am              B7        Em    B7
y en el Kumbala todo es música y pasión.

<------------------------------------------------------------------>
IX-.

e||--12--14--15--14--12------------------12--|
B||--12------------------15--12----------12--|
G||--12--------------------------14--12--12--|
D||------------------------------------------|
A||------------------------------------------|
E||------------------------------------------|

e||--12---------------------------------------|
B||--12------12--15--12-----------------------|
G||--12--14--------------14--12--14--12--12/9-|
D||-------------------------------------------|
A||-------------------------------------------|
E||-------------------------------------------|

<------------------------------------------------------------------>
X-.*(Se toca al mismo tiempo que el IX)

     Em
e||-----------|
B||-----------|
G||-----------|
D||-----------|
A||--------2--|
E||--0--3-----|x4

<------------------------------------------------------------------>
XI-.

     Em              B7               Am          B7
e||-----------|    |-----------|    |-----------|-----------|
B||-----------|    |-----------|    |-----------|-----------|
G||-----------|    |-----------|    |-----------|-----------|
D||-----------|    |-----1--4--|    |--------2--|-----1--4--|
A||-----3--2--|    |--2--------|    |--0--3-----|--2--------|
E||--0--------|x4  |-----------|x2  |-----------|-----------|x2

     Em              Em
e||-----------|    |--0--|
B||-----------|    |--0--|
G||-----------|    |--0--|
D||-----------|    |--2--|
A||-----3--2--|    |--2--|
E||--0--------|x8  |--0--|  **Fin**

<------------------------------------------------------------------>
Cualquier asunto relacionado con esta transcripcion, avisenme a mi correo
Suggest correction
Give kudos to tab author, rate the tab!
1 2 3 4 5
comments
print report bad tab
guest
You may want to rate the tab now too:
select rating
Wanna post a correction for this tab? Suggest correction