Oops, an error
Loading. Please wait.

La Tormenta Tab

36 views 1 this week
no commentswrite comment
1 2 3 4 5
3 more votes to show rating
add to favorites
×
Save as Personal and add changes to this tab that will be seen only by you. Learn more ›
×
You can save this tab as Personal to edit and correct it or add notes. All changes will be seen only by you. Learn more »
save as personal
new!
launch autoscroll
font size
0
reset
how to read this tab
guitar tuner
Autoscroll
slow
fast
+/-
esc
set tempo
stop
Sale pues chavos note que hacia falta esta rola en la cuerda y
valla que me costo trabajo encontrar en si la rola,
ya que casi no oigo mucho de estos chavos de la maldita
 pero hay rolas que me encantan de ellos


Esta rola en si la base es muy facil es casi puro
Sol mayor y Do mayorsolo hay que tener cuidado
con el ritmo de guapango al inicio y a la
hora de que entra la voz cambiar a tipo ska
(Ya saben no mas las primeras
tres cuerdas con un rasgueo de abajo hacia
arriba y apagando las guerdas
al bajar la mano) y usar de preferencia el Do con cejilla.


Idioma:

C = [ch]C[/ch]
G = [ch]G[/ch]


Notas usadas:

    G     C    G#    Cm

e|--3--|--3--|--4--|--3--|
B|--3--|--5--|--4--|--4--|
G|--4--|--5--|--5--|--5--|
D|--5--|--5--|--6--|--5--|
A|--5--|--3--|--6--|--3--|
E|--3--|--3--|--4--|--3--|


Ok aqui los riffs van acompañados de un ritmo guapango
con un simple circulo de las notas G y C


       Riff 1

e|---------------------------------
B|---------------------------------
G|---------------------------------
D|-----0-3-2-0---------0-3-2-0-2--- x3
A|---2---------2-----2-----------3-
E|-3---------------3---------------

e|-------------------------------------------
B|-------------------------------------------
G|-------------------------------------------
D|-----0-3-2-0---------0-3-2-0-2---0-2---0-2-
A|---2---------2-----2-----------3-----3-----
E|-3---------------3-------------------------


     Riff 2

e|-----------------------------------
B|-----------------------------------
G|-----------------------------------
D|-0-2-3--0-2-3--0-2-3--0-2-3-5-3-2--
A|-----------------------------------
E|-----------------------------------


e|------------------------------------
B|------------------------------------
G|------------------------------------
D|---0-2----0-2----0-2----0-2-3-2-3---
A|-3------3------3------3-------------
E|------------------------------------


e|-------------------
B|-------------------
G|-------------------
D|-5-5-5-5-5-5-5-5---
A|-------------------
E|-------------------

e|-----------
B|-----------
G|-----------
D|-7--5-7-5-- x4
A|-----------
E|-----------

e|--------------------
B|--------------------
G|----------4---------
D|-7--5-7-5---7-5-3-2-
A|--------------------
E|--------------------


e|-------------------
B|-------------------
G|-------------------
D|-5-5-5-5-5-5-5-5---
A|-------------------
E|-------------------

e|-----------
B|-----------
G|-----------
D|-7--5-7-5-- x4
A|-----------
E|-----------

e|--------------------
B|--------------------
G|----------4-----4-5-
D|-7--5-7-5---5-7-----
A|--------------------
E|--------------------


(Aqui ya entra el rasgueo tipo ska)

G                                    C
 Ponte buso mi buen, te pueden madrugar
                            G         C
 Porque está retedura, ya ves, la tormenta
G                                 C
 Fíjate mi carnal la calle se nubló
                                       G
 Hay un gran apagón, la ciudad es un caos
                   C
 pero voy con mi prieta.


  G                  C
   ¿Dónde voy con mi prieta?                     ehhh !!!

e|-8-8-8-10-7-----------------------------7-5-3-8-5-3-
B|------------8-6-5---5-8-6-5-8---5-8-6-5-------------
G|------------------5-----------5---------------------
D|----------------------------------------------------  x 2
A|----------------------------------------------------
E|----------------------------------------------------


G                                         C
 Donde crees tú que vas, mira el cielo se cae
                           G               C
 En la noche retumba, ya ves, con la tormenta
G                                       C
 Oiga pues no hay fijón, solamente cuidar
                                       G
 Con esta oscuridad ya no puede ser peor
                   C
 Voy a ver a mi güeo
                                      Adorno (Hazlo con un picking)
                                           e|-8-8-8----7-7-7
                                           B|-8-8-8----8-8-8
G#  G  G#                     G
 Él va observando miradas de miedo
Cm  G  G#                   C
 Ella, la luna vigila su andar


(Aqui se repite los riffs 1 y 2 del inicio)

 Cruzando están, la tormenta, la tormenta, la tormenta...
 eeehh pale!!!


G          C  G                          C
 Él canta una canción para alegrar su andar
G        C         G              C
 Ella camina siguiendo a su corazón
G#   G         G#                    G
 Él ve, la distingue a pesar de la noche
Cm  G       G#                 C
 Ella, al tocarlo lo hace olvidar


(En esta parte es puro C y G hasta acabar el solo de sax y la voz)

 Cayendo está, la tormenta, la tormenta, la tormenta.. eh eh eh !!!


Sigue su corazon......

e|---------------------------------
B|---------------------------------
G|---------------------------------
D|-----0-3-2-0---------0-3-2-0-2---
A|---2---------2-----2-----------3-
E|-3---------------3---------------

e|--------------------------------------
B|--------------------------------------
G|--------------------------------------
D|-----0-3-2-0--------0-3-2-0-2---------
A|---2---------2----2-----------3-3-3-3-
E|-3--------------3---------------------

Fin.


Sale pues guitarros locos ojala y les pueda servir mi contribucion
cualquier mentada o felicitacion me las mandan por fa a:
oskir666_1@

Tambien por ahi disculpen si hay algo con mala ortografia o
escrito mal ya que tengo principios de dislexia jajaja.

Viva el rock carajo !!!


Tablatura transcrita por: Kemalos Rules
Suggest correction
Give kudos to tab author, rate the tab!
1 2 3 4 5
comments
print report bad tab
guest
Wanna post a correction for this tab? Suggest correction