Oops, an error
Loading. Please wait.

Lamento Tab

54 views 1 this week
no commentswrite comment
1 2 3 4 5
3 more votes to show rating
add to favorites
launch autoscroll
font size
0
reset
how to read this tab
guitar tuner
Autoscroll
slow
fast
+/-
esc
set tempo
stop
Help us to improve Ultimate-Guitar.com Take our survey!
×

This TAB transcription was created using TAB MASTER version 1.0
If you enjoy using this program, please consider telling the author
about it: Ofir Zwebner, e-mail: ofirz1@
                    snail-mail: Ehoud 10, Tel Aviv, 69936, Israel

This program is freeware, but it took me some work to make it, so
your financial contribution is welcome.

--------------------------------------------------------------------
Que hay amigos?
Miren aquí les tengo algo de la Maldita, hagamos algo por difundir la música mexicana,
si alguien quiere intercambiar tablaturas de la maldita, porfavor comuniquense conmigo 
en nefandario@


()tremolo, palanca etc.
r() palm muting right hand, muteo con la palma de la mano derecha

  Esto es una transcripción de la maldita espero les sirva
  Primero comienza con un ruido extraño que con la cuerda LA al aire
  y un poco de distorisión podremos imitar.

Pronto publicaré otra tablatura la cuál contiene la parte del sax, 
pero transcrito a la lira.

e:---------------------------------------------------------------------------|
B:---------------------------------------------------------------------------|
G:---------------------------------------------------------------------------|
D:---------------------------------------------------------------------------|
A:--------0----------------------------------------------------------------|
E:---------------------------------------------------------------------------|


   Después de dos veces de hacer estos últimos rasgueos
   se repiten pero ahora con distorsión, (los primeros rasgueos sin distor
   suenan bien si los tocas comos si fuera música española)
e:-5------5-------------5-------6------5-------------------------------------|
B:-5------5-------------5-------6------5-------------------------------------|
G:-6------6-------------6-------7------6-------------------------------------|
D:-7------7-------------7-------8------7-------------------------------------|
A:-7------7-------------7-------8------7-------------------------------------|
E:-5------5-------------5-------6------5-------------------------------------|


     Aquí ya comienza la distorsión,


e:----5---------------------------------------5------------------------------|
B:----5---------------------------------------5------------------------------|
G:----6---------------------------------------6------------------------------|
D:----7---------------------------------------7------------------------------|
A:----7---------------------------------------5------------------------------|
E:----5----r(5)---r(5)---r(5)----r(5)---r(5)--5--r(5)---r(5)---r(5)---r(5)---|


e:-----------5----6----5-----------------------------------------------------|
B:-----------5----6----5-----------------------------------------------------|
G:-----------6----7----6-----------------------------------------------------|
D:-----------7----8----7-----------------------------------------------------|
A:-----------7----8----7-----------------------------------------------------|
E:r(5)-------5----6----5-----------------------------------------------------|


    Luego se siguen con un riff que se repite cinco veces

e:---------------------------------------------------------------------------|
B:---------------------------------------------------------------------------|
G:----------------------------------------------------------------------5-5--|
D:--5---7---8---7---5---7-7-<3-veces>-5---7---8---7---5---8-8---5---8-------8|
A:---------------------------------------------------------------------------|
E:---------------------------------------------------------------------------|


e:---------------------------------------------------------------------------|
B:---------------------------------------------------------------------------|
G:---------------------------------------------------------------------------|
D:---5---7-------------------------------------------------------------------|
A:---------------------------------------------------------------------------|
E:---------------------------------------------------------------------------|


  Después sigue esto, trata de tocar las cuerdas más agudas solamente
  Para tocar esto bien mejor escucha el audio para que te fijes más o menos 
  Como es el rasgueo.
e:---------------------------------------------------------------------------|
B:-5---6------8--------------------------------------------------------------|
G:-6---7------9--------------------------------------------------------------|
D:-7---8------10-------------------------------------------------------------|
A:-7---8------10-------------------------------------------------------------|
E:---------------------------------------------------------------------------|


Espero les sirva de algo,¡ Que viva México y la originalidad de su Música!,

Atte. Mr. M.(señor eme).
(nefandario@
Suggest correction
Give kudos to tab author, rate the tab!
1 2 3 4 5
comments
print report bad tab
guest
You may want to rate the tab now too:
select rating
Wanna post a correction for this tab? Suggest correction