Oops, an error
Loading. Please wait.

Mare Tab

38 views 1 this week
no commentswrite comment
1 2 3 4 5
3 more votes to show rating
add to favorites
launch autoscroll
font size
0
reset
how to read this tab
guitar tuner
×
Best way to learn
"Mare"
Autoscroll
slow
fast
+/-
esc
set tempo
stop
Intro 

                                                          
E-||----7----5----8-----7------||
B-||----7----5----8-----7------||
G-||----8----6----9-----8-----*||
D-||----9----7----10----9-----*||
A-||---------------------------||
E-||---------------------------||

	..........Mare !!                                 

E-||----10-10-10-/--8--8--8-/-12-12-12-/-10------||
B-||----12-12-12-/-10-10-10-/-13-13-13-/-12------||
G-||--------------------------------------------*||
D-||--------------------------------------------*||
A-||---------------------------------------------||
E-||---------------------------------------------||

	..........Mare !!

E-||----15-15-15-/-13-13-13-/-17-17-17-/-15------||
B-||----17-17-17-/-15-15-15-/-18-18-18-/-17------||
G-||--------------------------------------------*||
D-||--------------------------------------------*||
A-||---------------------------------------------||
E-||---------------------------------------------||

	..........Mare niña!! 

E-||----2-/-3-3---3------||
B-||----2-/-3-3---4------||
G-||----3-/-4-4---4-----*||
D-||--------------------*||
A-||---------------------||
E-||---------------------||


   Hace cuatro mese que sali de Yucatán...

E-||----------------10--7--10--7------||
B-||----------------------------------||
G-||----7-7-7-7-7-7------------------*||
D-||---------------------------------*||
A-||----------------------------------||
E-||----------------------------------||


   Me regreso a Yucatan...

E-||----12-12-12-12--10--8--8-7-8---------12-12-12-12--10--8--8-7-10---||
B-||-------------------------------------------------------------------||
G-||------------------------------------------------------------------*||
D-||------------------------------------------------------------------*||
A-||-------------------------------------------------------------------||
E-||-------------------------------------------------------------------||
	
  	
   Lo que falta de la canción usa estas mismas frases.
Suggest correction
Give kudos to tab author, rate the tab!
1 2 3 4 5
comments
print report bad tab
guest
You may want to rate the tab now too:
select rating
Wanna post a correction for this tab? Suggest correction