Oops, an error
Loading. Please wait.
64 views 1 this week
no commentswrite comment
1 2 3 4 5
3 more votes to show rating
add to favorites
launch autoscroll
font size
0
reset
how to read this tab
guitar tuner
×
Best way to learn
"Mojado"
Autoscroll
slow
fast
+/-
esc
set tempo
stop
INTRO 

E|--9--9--9--9--9--9--9--9--7-7-7-7-7-7-7-7
B|-10-10-10-10-10-10-10-10--9-9-9-9-9-9-9-9
G|-11-11-11-11-11-11-11-11--9-9-9-9-9-9-9-9
D|-11-11-11-11-11-11-11-11--9-9-9-9-9-9-9-9
A|-----------------------------------------
E|-----------------------------------------

E|-5-5-5-5-5-5-5-5--4-4-4-4-4-4-4-4
B|-7-7-7-7-7-7-7-7--6-6-6-6-6-6-6-6
G|-7-7-7-7-7-7-7-7--6-6-6-6-6-6-6-6
D|-7-7-7-7-7-7-7-7--6-6-6-6-6-6-6-6
A|---------------------------------
E|---------------------------------

SOLO

E|-17-17-17-17-17-17-17-17--16-16-16-16-16-16-16-16
B|-19-19-19-19-19-19-19-19--17-17-17-17-17-17-17-17
G|-18-18-18-18-18-18-18-18--16-16-16-16-16-16-16-16
D|-------------------------------------------------
A|-------------------------------------------------
E|-------------------------------------------------

E|-14-14-14-14-14-14-14-14--13-13-13-13-13-13-13-13
B|-15-15-15-15-15-15-15-15--14-14-14-14-14-14-14-14
G|-14-14-14-14-14-14-14-14--13-13-13-13-13-13-13-13
D|-------------------------------------------------
A|-------------------------------------------------
E|-------------------------------------------------

E|-----17----------16----------14----------13------
B|---19--19------17--17------15--15------14--------
G|-18------18--16------16--14------14--13----------
D|-------------------------------------------------
A|-------------------------------------------------
E|-------------------------------------------------

E|---17--17--17--17--17--17----16------14--14--14--14--14--14---13----
B|-19--19--19--19--19--19----17--17--15--15--15--15--15--15---14--14--
G|-------------------------16------16------------------------13-----13
D|--------------------------------------------------------------------
A|--------------------------------------------------------------------
E|--------------------------------------------------------------------
Suggest correction
Give kudos to tab author, rate the tab!
1 2 3 4 5
comments
print report bad tab
guest
You may want to rate the tab now too:
select rating
Wanna post a correction for this tab? Suggest correction