Oops, an error
Loading. Please wait.

Tatuaje Tab

21 views 3 this week
no commentswrite comment
1 2 3 4 5
3 more votes to show rating
add to favorites
launch autoscroll
font size
0
reset
how to read this tab
guitar tuner
×
Best way to learn
"Tatuaje"
Autoscroll
slow
fast
+/-
esc
set tempo
stop
E|--17--15--17--15--14--12--8--5--|--8-8--7--5--12--7--| x 2 veces

E|--8--7--5--8--7--5--14--12--8--5--|--14--15--12--10--12-10--7--|

E|--5--8--7--3--7--3--2--0--|

E|-0--2--3--5--3--2--3---0--3s-7--5--3--2--10--8--7--8--7--5--3--5--7-|
B|----------------------0---------------------------------------------|

Em               B7              C      B7        Em
  Ana, amada, tenías razón te has ido y ahora comprendo tu voz
               B7             C       B7        Em   
  nada te debo, nada me debes vida, estamos en paz.
 
              'ANA'
   Am          D7      Am           B7  Am         D7
B|--5-5-5-5-7-8-7------5-5-5-5-7-8s-12--5-5-5-5-7-8-7-5-----|
G|-----------------------------------------------------5-4--|

 Em               B7                C            B7              Em
  Tú me decías, la vida es un juego nada es para siempre, disfruta jugar
                     B7              C         B7           Em
  yo tenía prisa, buscaba respuestas ciego corría y tropezaba al andar.
 Am              D7    Am                   B7  Am                     D7
  Ahora paseo de noche  con tu ausenciaa mi lado un largo adiós que nunca se acaba
  Em              B7  C       B7     Em
  Ana, Ana, Ana, Ana vivir es despedirse, amor.

  Em   B7        C        B7            Em
  Ana, Ana, la muerte no impide que escuche tu voz Ana, Ana, Ana, Ana
  B7        C        B7       Em
  Ana, no eres un recuerdo tu vives en mi.

E|--------------------------------------------------------12----|
B|--10-10-10-10-8-7-8-7-5-0-----12-15-13-12-10-8-7-8-10-12--12--|
  
Am                 B7    Am          B7
  Tengo tatuado tu nombre una rosa roja y un puñal
Am               B7    Am                  B7    Em  
  en mi pecho te llevo   vida, estamos en paz.

E|--7-8-7-12-7-8-7-|-7-8-7-11-7-8-7-| E|--7-8-7-12-7-8-7-|-7-8-7-14-7-8-7-|

E|--7-8-7-12-7-8-7-|-7-8-7-5-7-3-5-|

E|--17--15--17--15--14--12--8--5--|--8-8--7--5--12--7--| x 2 veces

E|--8--7--5--8--7--5--14--12--8--5--|--14--15--12--10--12-10--7--|

E|--5--8--7--3--7--3--2--0--|--5-3-5-3-2-0-|-5-3-5-7-3-|

E|--5-3-5-3-2-0-|--8-7-8-7-12-7-|--3-3-3-3-0-3-0-0--|

E|--0-3-7-10-8-7-5-3-5-7--|--8-7-8-7-8-12-7--|

E|--3-2-0---0--|--8-7-8-7-8-12-7--|--3-2-0---0--|
B|--------3-----------------------|--------3----|
Suggest correction
Give kudos to tab author, rate the tab!
1 2 3 4 5
comments
print report bad tab
guest
You may want to rate the tab now too:
select rating
Wanna post a correction for this tab? Suggest correction