Oops, an error
Loading. Please wait.

Alone Made Of Ice Tab

379 views 18 this week
1 commentread comment
1 2 3 4 5
1 last vote to show rating
add to favorites
launch autoscroll
font size
0
reset
how to read this tab
guitar tuner
Autoscroll
slow
fast
+/-
esc
set tempo
stop
Help us to improve Ultimate-Guitar.com Take our survey!
×
Author
Difficulty
Tuning
Capo
intermediate
E A D G B E
4th fret
About this tab version
The reason for the capo on the 4th fret is to make it easier to move around ones fingers to reach every tone in the tab. This tab is made only by hearing to the song so it is most likely to have some flaws. Feel free to add in any improvements you can think of. Was this info helpful? Yes No
I haven´t found any tabs for this amazing song anywhere, neither tutorial videos so i 
have tried my best
to tab this song as well as I can.


[Intro]

e|----------------------------------------------------------3--8--7---------------|
B|--------------------------------------------------------------------------------|
G|-----------2--4-/-7----9--5--4-h-5-p-4-----------------------------4--7--2--7---|
D|--2--4-h-5-----------------------------5---2--4--5--4--2-----------------------5|
A|--------------------------------------------------------------------------------|
E|--------------------------------------------------------------------------------|


[Main riff]

e|---------------------------------------------------------------------------|
B|---------------------------------------------------------------------------|
G|-----0-----0-----0-----0-----0-----0-----0-----0---------------------------|
D|--2-----2-----2-----2-----2-----2-----4-----4------------------------------|
A|---------------------------------------------------------------------------|
E|---------------------------------------------------------------------------|

e|---------------------------------------------------------------------------|
B|---------------------------------------------------------------------------|
G|--4-----4-----4-----4-----4-----4-----4-----4------------------------------|
D|-----5-----5-----5-----5-----5-----5-----5-----5---------------------------|
A|---------------------------------------------------------------------------|
E|---------------------------------------------------------------------------|

e|---------------------------------------------------------------------------|
B|---------------------------------------------------------------------------|
G|-----0-----0-----0-----0-----0-----0-----0-----0---------------------------|
D|--2-----2-----2-----2-----2-----2-----4-----4------------------------------|
A|---------------------------------------------------------------------------|
E|---------------------------------------------------------------------------|

e|---------------------------------------------------------------------------|
B|---------------------------------------------------------------------------|
G|--7-----7-----7-----5-----4-----4-----2-----2------------------------------|
D|-----5-----5-----5-----5-----5-----5-----5-----5---------------------------|
A|---------------------------------------------------------------------------|
E|---------------------------------------------------------------------------|(x7)

The whole main riff repeats 7 times with the part below played 2 times simultaneously.
After the main riff is played all 7 times the Outro begins.


[After talking part]

e|---------------------------------------------------------------------------|
B|---------------------------------------------------------------------------|
G|--2-h-4----------2-h-4--0-----2-h-4--7-----7--5--4-h-5-p-4-----------------|
D|----------2-p-0------------------------------------------------------------|
A|---------------------------------------------------------------------------|
E|---------------------------------------------------------------------------|(x2)


[Outro]

e|---------------------------------------------------------------------------|
B|---------------------------------------------------------------------------|
G|-----------------4 x8------------------------------------------------------|
D|--2 x16---5 x8----------2x 16---5 x8---4 x8--------------------------------|
A|---------------------------------------------------------------------------|
E|---------------------------------------------------------------------------|(x5)

end on playing the D string 2nd fret 16 times and fade out.

This is a link to the music video where you can practice the timing on everything:
https://www.youtube.com/watch?v=6_xp3e5lojY


************************************

| h  Hammer-on
| p  Pull-off
| / Slide
************************************
Suggest correction
Give kudos to tab author, rate the tab!
1 2 3 4 5
comments
print report bad tab
1 comment total.
0 reply
yasser147 34 2 days ago, edited at 07:47 pm

I've been looking for this for such a very long time. This is perfect. Thank you very much!

guest
You may want to rate the tab now too:
select rating
Wanna post a correction for this tab? Suggest correction