Oops, an error
Loading. Please wait.

Vogliamo Bevere tab

64 views 1 this week
1 commentread comment
1 2 3 4 5
3 more votes to show rating
add to favorites
×
Save as Personal and add changes to this tab that will be seen only by you. Learn more ›
×
You can save this tab as Personal to edit and correct it or add notes. All changes will be seen only by you. Learn more »
launch autoscroll
font size
0
reset
how to read this tab
guitar tuner
edit
Autoscroll
slow
fast
+/-
esc
set tempo
stop
Author
Difficulty
VOGLIAMO BEVERE - Maleducazione Alcolica

e|---------------------------------------------------------|
B|---------------------------------------------------------|
G|---------------------------------------------------------|    
D|----------------------------------2--5--2-----4--7-5-4---|  x2  
A|------2--5--2---------2-0------3-----------5-----------5-|
E|--3-------------0--2------3-0----------------------------|

ritmo ska

SOL MI- DO RE x2

SOL
Oggi esco di cella
MI-
Mi avevano ingabbiato
DO                       RE
Son stato quattro mesi nell'inferno dello stato
SOL                     MI-
Mi avevano ingabbiato perché considerato
DO                 RE
Soggetto avverso, MAI DOMATO!
SOL                        MI-
E arrivano gli sbirri quando scendo in stazione
DO                      RE
Mi fanno controllare per la mia reputazione
SOL                    MI-
Portatelo in centrale e fatelo annusare
DO                         RE
Col fiuto del mio cane lui non può scappare 

(punk in powerchords)

SOL          MI-
MAI! NON LO FARò MAI
DO             RE
LO SBIRRO NON LO FARò MAI
SOL               MI-
NEANCHE IL FINANZIERE
DO    RE
E ADESSO HO SETE 

(Il tempo dimezza)

SOL     
VOGLIAMO BEVERE!

MI-

DO
VOGLIAMO BEVERE!

RE


SOL     
VOGLIAMO BEVERE!

MI-

DO
VOGLIAMO BEVERE!

RE



tutto da capo ;)

            
            
Suggest correction
Creating personal tab
Creating personal tab
You can edit any tab online and save it as your Personal.

You can edit, replace or remove any tab part or add personal notes – all changes will be seen only by you.

Personal tabs can be accessed anytime from any device, even offline.
Learn more »
Give kudos to tab author, rate the tab!
1 2 3 4 5
comments
print report bad tab
1 comment total.
0 reply
kristo23 64 Aug 06, 2013 08:14 AM

e|---------------------------------------------------------|
B|---------------------------------------------------------|
G|---------------------------------------------------------|
D|----------------------------------2--5--2-----4--7-5-4---| x2
A|------2--5--2---------2-0------3-----------5-----------5-|
E|--3-------------0--3------3-0----------------------------|

errore di distrazione.

guest
You may want to rate the tab now too:
select rating
Wanna post a correction for this tab? Suggest correction