Oops, an error
Loading. Please wait.

Postmortem Perception Tab

version 1
version 1

Whole song

Interactive

596 views 1 this week
no commentswrite comment
1 2 3 4 5
3 more votes to show rating
add to favorites
launch autoscroll
font size
0
reset
how to read this tab
guitar tuner
Autoscroll
slow
fast
+/-
esc
set tempo
stop
Help us to improve Ultimate-Guitar.com Take our survey!
×
Author
Difficulty
Tuning
novice
A E A D F# B
Malignancy
Postmortem Perception

Email me if theres mistakes
chito6312@yahoo.com


Tuning A

                                                    0:06
                                         -          +
||---------------------------------------------------------|
||---------------------------0ph---------------------------|
||---------------------------0ph--------------------5ph----|
||------------------------2--------1-0---------------------|
||--ph--ph--ph--ph---4-3--3--------1-0---------6--7--------|
||--6/7-5/6-4/5-3/4--2-1------------------5ph~-40-5--------|
                          .        * *         ** *

                           0:07
-------------------------------------------------|
---------0ph-------------------------------------|
---------0ph-------------------------------------|
------2--------1-0--------------2ph---------3ph--|
-4-3--3--------1-0-------------------------------|
-2-1-----------------5ph~-1255------1255---------|
      .        * *        ....      ....

--------------------------------------------------------------------|
---------2ph----------------------------------0ph-------------------|
---------0ph----------------------------------0ph-------------------|
------2--------1-0--------------------4-3--2--------1-0-------------|
-4-3--3--------1-0--------------1ph---4-3--3--------1-0-------------|
-2-1-----------------5ph~-12555-------2-1-----------------5ph~--(0)-|
               * *        .....                     * *

-----------------------|| Repeat
-----------------------||
-----------------------||
------2ph-------3ph~---||
-----------------------||
-1255------1255--------||
 ....      ....

0:30
Fill 1
Rhythm is hard here...

          v                     v
|---------------------------------------------|
|---------------------------------------------|
|---------4---------------------4-------3ph~--|
|---------2-------4ph~----------2-------------|
|---------2---------------------2-------------|
|-0-1-0-1-0-020-0-------0-1-0-1-0-020-0-------|
  , , , ,   ,,, ,       , , , ,   ,,, ,

|------------------------------------------|
|---------b--------------------b-----------|
|--------4ph------------------4ph----------|
|------------------------------------------|
|-3-2-2---------0-2-2---3-2-2-------0-2-2--|
|-1-0-0--------01-3-3---1-0-0------01-3-3--|

----------------------------|
---------b------------------|
--------4ph-----------------|
---------------------rest---|
-3-2-2--------0-2-1---------|
-1-0-0--------1-3-2---------|
                   .

0:39
The trem picked part is pretty much impossible to hear accurately...

                          |--Very Fast-|                 -         +
-----------------------------------------------------------------------|
---------------------------------------b-------------------------------|
----------------------------h---h---/--4ph-b---------------------------|
----------------b----------3-6-3-6-5-6-----2ph-----------------5-------|
----------------3ph------4----------------------2\1-/2\1-b---4-3-5-b---|
-0022333334440--------0-------------------------3\2-/3\2-3ph-2-1-3-6ph-|
 ,,,,,,,,,,,,,        .

          -         +
------------------------|
------------------------|
------------------------|
------------------5-----|
-2\1-/2\1-b---4-3-5-b---|
-3\2-/3\2-3ph-2-1-3-6ph-|

                                                  *-slight harmonic
---------------------------------------------------------|
---------------------------------------------------------|
---------------------------------------------------------|
---------------------------------------------ph----------|
------------------------h-h---h-h---h-h---h--4--*--------|
-223311444422334441111-3-4-6-4-6-7-4-6-7-6-7----3--------|
  ,,,,,,,,,,,,,,,,,,,,, , , , , , , , , , , ,

          -         +
------------------------------------------------|
------------------------------------------------|
------------------------------------------------|
------------------5-----------------------5-----|
-2\1-/2\1-b---4-3-5-b----2\1-/2\1-b---4-3-5-b---|
-3\2-/3\2-3ph-2-1-3-6ph--3\2-/3\2-3ph-2-1-3-6ph-|

---------------------------------------------||
---------------------------------------------||
---------------------------------------------||
---------------------------------------------||
------------------------h-h---h-h---h-h--4---||
-223311444422334441111-3-4-6-4-6-7-4-6-7---3-||
  ,,,,,,,,,,,,,,,,,,,,, , , , , , , , , , , ,

(this riff is HARD to follow)                 *See note
|-------------------------------------------------|
|-------------------------------------------------|
|-------------------------------------------------|
|-------------b---------------5/6-/5--------------|
|-{=}---------4ph--4-3-b------4/5-/4-(2-3-3-0)b---|
|-1-0-0-0-0-0------2-1-4ph-0----------0-1-2-1-3ph-|
  , , , , , ,      . .     *          * * * *
*On the first time this is played you can barely hear the
harmonic, but it is there.

---------------------------------------|
---------------------------------------|
---------------------------------------|
-----b-------------5/6-/5--------------|
-4-3-4ph-4-3-b-----4/5-/4-(2-3-3-0)b---|
-2-1-----2-1-4ph-0---------0-1-2-1-3ph-|
 * *     * *     *         * * * *

---------------------------------------|
---------------------------------------|
---------------------------------------|
-----b-------------5/6-/5--------------|
-4-3-4ph-4-3-b-----4/5-/4-(2-3-3-0)b---|
-2-1-----2-1-4ph-0---------0-1-2-1-3ph-|
 * *     * *     *         * * * *

---------------------------------------|
---------------------------------------|
---------------------------------------|
-----b-------------5/6-/5--------------|
-4-3-4ph-4-3-b-----4/5-/4-(2-3-3-0)b---|
-2-1-----2-1-4ph-0---------0-1-2-1-3ph-|
 * *     * *     *         * * * *

-----------||
-----------||
-----------||
-----b-----||
-4-3-4ph-4-||
-2-1-----2-||
 * *     *

1:14    Back to intro
                                         -          +
||---------------------------------------------------------|
||---------------------------0ph---------------------------|
||---------------------------0ph--------------------5ph----|
||------------------------2--------1-0---------------------|
||--ph--ph--ph--ph---4-3--3--------1-0---------6--7--------|
||--6/7-5/6-4/5-3/4--2-1------------------5ph~-40-5--------|
                          .        * *         ** *

                           0:07
-------------------------------------------------|
---------0ph-------------------------------------|
---------0ph-------------------------------------|
------2--------1-0--------------2ph---------3ph--|
-4-3--3--------1-0-------------------------------|
-2-1-----------------5ph~-1255------1255---------|
      .        * *        ....      ....

--------------------------------------------------------------------|
---------2ph----------------------------------0ph-------------------|
---------0ph----------------------------------0ph-------------------|
------2--------1-0--------------------4-3--2--------1-0-------------|
-4-3--3--------1-0--------------1ph---4-3--3--------1-0-------------|
-2-1-----------------5ph~-12555-------2-1-----------------5ph~--(0)-|
               * *        .....                     * *

-----------------------|| Repeat
-----------------------||
-----------------------||
------2ph-------3ph~---||
-----------------------||
-1255------1255--------||
 ....      ....
Suggest correction
Give kudos to tab author, rate the tab!
1 2 3 4 5
comments
print report bad tab
guest
You may want to rate the tab now too:
select rating
Wanna post a correction for this tab? Suggest correction