Oops, an error
Loading. Please wait.

Rotten Seed Tab

697 views 1 this week
no commentswrite comment
1 2 3 4 5
please rate
add to favorites
launch autoscroll
font size
0
reset
how to read this tab
guitar tuner
Autoscroll
slow
fast
+/-
esc
set tempo
stop
Help us to improve Ultimate-Guitar.com Take our survey!
×
Author
Difficulty
Tuning
novice
A E A D F# B
Rotten Seed
Malignancy

Email me if theres mistakes
chito6312@yahoo.com

Tuning: A

Intro
|-----------------|
|-----------------|
|-----------------|
|-----------------|
|-6-5-8-7-5-6-3-4-|
|-4-3-6-5-3-4-1-2-|
  . . . . . . . .

Riff 1
|-------------------------------------------------|
|-------------------------------------------------|
|-------------------------------------------------|
|-------------------------------------------------|
|-9--<12-13>--9--<12-13>--9--<12-13>--4"-6"-7"-5"-|
|-------------------------------------2"-4"-5"-3"-|

|---------------------------------|
|---------------------------------|
|---------------------------------|
|-----5/6-----6\5-----5/6---------|
|-3-3-4/5-3-3-5\4-3-3-4/5-3-6-5-3-|
|-1-1-3/4-1-1-4\3-1-1-3/4-1-4-3-1-|
  . .     . .     . .     . . . .

Riff 2
|-------------------------------------------------|
|-------------------------------------------------|
|-------------------------------------------------|
|-------------------------------------------------|
|-7"----6"----------------5"----------------4"----|
|-------------8"----7"----------6"----5"----------|

Riff 3A
|----------------------------------------------------------|
|----------------------------------------------------------|
|----------------------------------------------------------|
|----------------------------------------------------------|
|-2---2--2--2-5---5-5--4--3--2---2--2--2-7---7-7---6-------|
|-0---0--0--0-3---3-3--2--1--0---0--0--0-5---5-5---4--4ph~-|
      .  .  .                    .  .  .

Riff 3B
|-------------------------------------------------------------|
|-------------------------------------------------------------|
|-------------------------------------------------------------|
|-------------------------------------------------------------|
|-3---5---4---6-----5----4--3--3---5---4---6-----7----6-------|
|-1-0-3-0-2-0-4-0-0-3--0-2--1--1-0-3-0-2-0-4-0-0-5--0-4--4ph~-|
  . . . . . . . . .    .       . . . . . . . . .    .

Riff 4
|-----------------------------------------------------|
|-----------------------------------------------------|
|-----------------------------------------------------|
|-----------------------------------------------------|
|-------------------6-----7-----6---------------------|
|-0-----7-----8-----------------------8-----7---4ph~--|

Riff 5
|-------------------------------|
|-------------------------------|
|-------------------------------|
|-------------------------------|
|-2-2-2-2-3--2-2-5--2-2-4-4-6-6-|
|-0-0-0-0-1--0-0-3--0-0-2-2-4-4-|
  . . . .    . .    . . . . . .

Riff 1
Riff 2
Riff 3A
Riff 3B

Riff 6
|----------------------|
|----------------------|
|----------------------|
|----------------------|
|-2"-----3"--2"4"--5"--|
|-0"-----1"--0"2"--3"--|

|----------------------------------------------|
|----------------------------------------------|
|----------------------------------------------|
|----------------------------------------------|
|-6--<9-10>--6--<9-10>--6--<9-10>--4"-6"-7"-5"-|
|----------------------------------2"-4"-5"-3"-|

|------------------------------|
|------------------------------|
|------------------------------|
|------------------------------|
|-3---5---4---6-----5----4--3--|
|-1-0-3-0-2-0-4-0-0-3--0-2--1--|
  . . . . . . . . .    .

Ending
|------------------------|
|------------------------|
|------------------------|
|------------------------|
|-3---5---4---6-----7----|
|-1-0-3-0-2-0-4-0-0-5----|
  . . . . . . . . .

Suggest correction
Give kudos to tab author, rate the tab!
1 2 3 4 5
comments
print report bad tab
guest
You may want to rate the tab now too:
select rating
Wanna post a correction for this tab? Suggest correction