Oops, an error
Loading. Please wait.

California chords

version 2
version 2

Whole song

274 views 3 this week
no commentswrite comment
1 2 3 4 5
2 more votes to show rating
add to favorites
×
Save as Personal and add changes to this tab that will be seen only by you. Learn more ›
×
You can save this tab as Personal to edit and correct it or add notes. All changes will be seen only by you. Learn more »
launch autoscroll
font size
0
reset
transpose
0
reset
display chords
guitar tuner
edit
Autoscroll
slow
fast
+/-
esc
set tempo
stop
Strumming
There is no strumming pattern for this song yet. and get +5 IQ
CAPO 1
or CAPO 4 for Unwired (acoustic) version

h = hammer on
p = pull off 

[Intro]
D           G                   D      G
You've been waiting to take a ride
G
So here's a question
D             G                 D      G
Will you jump in or hide away inside?
    C                     G
But trust your heart and feel, a little love


e|--0h2p---2h3p--0--5---0h2p----2h3p--0--5----10--9--5----|
B|-------3------------3-------3-------------3-------------|              
G|--------------------------------------------------------|
D|--------------------------------------------------------|
A|--------------------------------------------------------|
E|--------------------------------------------------------|

e|---------------2--5--2--0----------------------2--------|
B|---------3--5--------------3-------3--5--3--0--3--------|
G|---2--4-----------------------4h6--------------2--------|
D|-----------------------------------------------0--------|
A|--------------------------------------------------------|
E|--------------------------------------------------------|

[Verse 1]
D           G                   D      G
You've lost faith in the summertime
Oh I know it's
  D         G                   D      G
A cold long winter this side of town
C                   G
Warm your heart and feel, a little love

[Chorus]
D                                  Bm
I'll tell you a secret, show you a brand new side to me
          G                                   D                 A
Because I found my heart in California on the other side of the sea
Bm                               E
And now I remember how to be the person that I wanna be
          G                       D
She's the angel on my shoulder, to me

e|---2---2h3p-------2---2h3p---0--------------------------|
B|--------------3-----------------------------------------|
G|--------------------------------------------------------|
D|--------------------------------------------------------|
A|--------------------------------------------------------|
E|--------------------------------------------------------|

[Verse 2]
D                   G
How can you picture up?
                    D
When all you see is down?
                     G                     D
It seems like second nature to people all around
                G                         D
So maybe take a leap and step out of your mind
                      G
You'll gain a new perspective
                 C                 G
You're realising lonely hearts can feel a little love

[Chorus]
D                                  Bm
I'll tell you a secret, show you a brand new side to me
          G                                   D                 A
Because I found my heart in California on the other side of the sea
Bm                               E
And now I remember how to be the person that I wanna be
          G                       D
She's the angel on my shoulder, to me

[Bridge]
D
There's an image that is burned in time
A
I can see it 'cause it lives inside my mind
Bm
I can see her when I close my eyes
G
I'll remember

D
Throwing pennies down the wishing well
A
Setting fires in the midnight air to kill
Bm
All our dreams, 'cause it hurts like hell
G
I'll remember

D
So wander with me 'til the end of time
A
We lay apart but see the same stars in the sky
Bm
We count the minutes as the days go by
G
You'll remember

[Chorus]
D             
I'll tell you a secret
           A
Show you a brand new side to me
           G
I found my heart in California
                           D
I found my heart in California

D                                  Bm
I'll tell you a secret, show you a brand new side to me
          G                                   D                 A
Because I found my heart in California on the other side of the sea
Bm                               E
And now I remember how to be the person that I wanna be
          G
She's the angel on my shoulder
G 
I found my heart in California
G 
I found my heart in California

[Outro] 

e|--0h2p---2h3p--0--5---0h2p----2h3p--0--5----10--9--5----|
B|-------3------------3-------3-------------3-------------|              
G|--------------------------------------------------------|
D|--------------------------------------------------------|
A|--------------------------------------------------------|
E|--------------------------------------------------------|

e|-----------------------------------------------2--------|
B|---------3--5----10----------------3--5--3--0--3--------|
G|---2--4-------11----11--9--7--4h6--------------2--------|
D|-----------------------------------------------0--------|
A|--------------------------------------------------------|
E|--------------------------------------------------------|

            
            
Suggest correction
Creating personal tab
Creating personal tab
You can edit any tab online and save it as your Personal.

You can edit, replace or remove any tab part or add personal notes – all changes will be seen only by you.

Personal tabs can be accessed anytime from any device, even offline.
Learn more »
Give kudos to tab author, rate the tab!
1 2 3 4 5
comments
print report bad tab
guest
You may want to rate the tab now too:
select rating
Wanna post a correction for this tab? Suggest correction