Oops, an error
Loading. Please wait.

30.000 Plegarias Tab

version 2
version 2

Whole song

61 views 1 this week
no commentswrite comment
1 2 3 4 5
3 more votes to show rating
add to favorites
launch autoscroll
font size
0
reset
how to read this tab
guitar tuner
Autoscroll
slow
fast
+/-
esc
set tempo
stop
Help us to improve Ultimate-Guitar.com Take our survey!
×
Es la version que tiene letra y a mi entender esta perfecta y
completa


Intro: Riff 1 (x2) / Riff 2 (x2)

Riff 1:

   D5   C5 D5    E5  F5    G5  F5    E5 F5 E5 D5
e-------------/---------/----------/---------------/
B-------------/---------/----------/---------------/
G-------------/---------/----------/---------------/
D--7~---5--7~-/--9--10~-/--12--10~-/-9--10--9--7~--/
A--5~---3--5~-/--7---8~-/--10---8~-/-7---8--7--5~--/
E-------------/---------/----------/---------------/

Riff 2:

  A5 F5  D5 Bb5 A5 F5 D5    G5  F5  E5 D5    F5 E5 D5 C5   C5  D5 E5
e----------/-------------/----------------/--------------------------/
B----------/-------------/----------------/--------------------------/
G----------/-------------/----------------/--------------------------/
D-7------7-/-8--7------7-/--12--10------7-/--10--9--7--5----5--7--9--/
A-7--8v--5-/-8--7--8v--5-/--10---8--7v--5-/--8---7--5--3----3--5--7--/
E(5)-------/(6)(5)-------/----------------/--------------------------/

----------------------------------------------------------------------

Riff 2
Años de luchar,
de mucho sufrir
ofreciendo dignidades

Riff 2
sangre y sudor,
y en mi corazón
sé que no he muerto en vano.

----------------------------------------------------------------------

Estribillo:

Bb5          C5       D5   (Riff 3)
Hoy no me dejes caer
Bb5                  C5                   D5
en las sombras que ayer truncaron mi destino

Riff 3:

  D5                    C5 Bb5
e-----------------------------/
B-----------------------------/
G-----------7----------7------/
D-----------7----------7-5-(3)/
A--5-5-5-5--5---5-5-5--5-3-(1)/
E-----------------------------/
  PM.......    PM.....

----------------------------------------------------------------------


Riff 2
La culpa apretó,
la conciencia se quebró
revelando las verdades

Riff 2
tortura y horror
en tu corazón
la esperanza no agoniza.

----------------------------------------------------------------------

Estribillo:

Bb5          C5          D5 (Riff 4)
Hoy no me dejes caer
Bb5                  C5                   D5       C5
en las sombras que ayer truncaron mi destino

Bb5      C5           D5   (Riff 3)
Vos no me dejés caer
Bb5                  C5                   D5
en las sombras que hoy me arrastran al olvido.

Riff 4:

  D5                     C5 A5 Bb5
e---------------------------------/
B---------------------------------/
G-----------7---------------------/
D-----------7----------7--5--2-(3)/
A--5-5-5-5--5---5-5-5--5--3--0-(1)/
E---------------------------------/
  PM.......    PM.....

----------------------------------------------------------------------

D5
Oh, oh, oh oh
oh oh oooh
Riff 5
uooooooooh

D5
Oh, oh, oh oh
oh oh oooh
Riff 5
uooooooooh

D5
Oh, oh, oh oh
oh oh oooh
Riff 6
uooooooooh


Riff 5:

    C5 B5 C5   E5  F5 E5  C5   D5  E5  C5  D5
e---------------------------------------------/
B---------------------------------------------/
G---------------------------------------------/
D---5--4--5----9--10--9---5----7--9---5---7---/
A---3--2--3----7---8--7---3----5--7---3---5---/
E---------------------------------------------/

Riff 6:

   A5    (G5-E5) Bb5   C5    D5       A5 D5 A5 F5 D5
e-------------------------------------------------------/
B-------------------------------------------------------/
G-------------------------------------------------------/
D----------------------5-5-5--7-7-7-7-----7--------7----/
A--7-7-7-7-5-2--8-8-8--3-3-3--5-5-5-5--7--5--7--3--5----/
E--5-5-5-5-3-0--6-6-6------------------5-----5--1-------/

----------------------------------------------------------------------

Estribillo: Con punteo de fondo

Bb5          C5          D5 (Riff 4)
Hoy no me dejes caer
Bb5                  C5                   D5       C5
en las sombras que ayer truncaron mi destino

Bb5      C5           D5   (Riff 3)
Vos no me dejés caer
Bb5                  C5                   D5        C5
en las sombras que hoy me arrastran al olvido.
Bb5                  C5                D5        C5
Las sombras que ayer truncaron mi destino
Bb5   (F5)         C5    (G5)         D5
las sombras que hoy me arrastran al olvido


Punteo de fondo: Escuchen bien la musica para darse cuenta

e-----------------------------|--------------------------------------|
B-----------------------------|--------------------------------------|
G-------------------10-9------|----------------------10--9-7-5-7-5---|
D-7/8--8/10--10/12-------10-8-|-7/8--8/10--10/12--12---------------8-|
A-----------------------------|--------------------------------------|
E-----------------------------|--------------------------------------|

e-----------------------------|--------------------------------------|
B-----------------------------|--------------------10-10h11-10-7-5---|
G-------------------10-9------|------------------10----------------9-|
D-7/8--8/10--10/12-------10-8-|-7/8--8/10--10/12---------------------|
A-----------------------------|--------------------------------------|
E-----------------------------|--------------------------------------|

e---------------------------------------------|----------------------|
B---------------------------------------------|--10/11--11/13----(15)|
G-------------------9h10-9--10-9--10/12--10-9-|---------------12-----|
D-7/8--8/10--10/12----------------------------|----------------------|
A---------------------------------------------|----------------------|
E---------------------------------------------|----------------------|

----------------------------------------------------------------------

Fin: Lo hace un ratito despues de terminada la cancion, con vibrato
y una distorcion (creo que wha-wha)

e----------------------------|
B----------------------------|
G----------------------------|
D-----------------------5----|
A--5~---7--5~--7h8-7--8---5~-|
E----------------------------|


AGUANTE LOS JORGES DE BAHIA BLANCA!
Suggest correction
Give kudos to tab author, rate the tab!
1 2 3 4 5
comments
print report bad tab
guest
You may want to rate the tab now too:
select rating
Wanna post a correction for this tab? Suggest correction