Oops, an error
Loading. Please wait.

Bajo El Dominio Danzante Bass Tab

196 views 1 this week
no commentswrite comment
1 2 3 4 5
3 more votes to show rating
add to favorites
launch autoscroll
font size
0
reset
guitar tuner
×
Best way to learn
"Bajo El Dominio Danzante"
Autoscroll
slow
fast
+/-
esc
set tempo
stop
Intro:
G -----------------------------
D -----------------------------
A -----------------------------
E 0-3-5-0-3-5---0-3-5-0-3-1----

Se repite 8 veces.

Se cierra mi garganta...
G ------------------------------------------------------
D ------------------------------------------------------
A 5-6-5-------------6-5-------------6-5-------------
E -------5-6-5-3-5------5-6-5-3-5------8-6-5-6-5-

Se repite 3 veces.

La diferencia...
G -----------------------------------------------
D -----------------------------------------------
A 6-5-------------6-5--------------6-5-3-5---
E -----3-5-5-6-5------3-5-5-6-5-----------3-

Se repite 3 veces.

Parte final: igual que la introducción.
Suggest correction
Give kudos to tab author, rate the tab!
1 2 3 4 5
comments
print report bad tab
guest
You may want to rate the tab now too:
select rating
Wanna post a correction for this tab? Suggest correction