Oops, an error
Loading. Please wait.

Bajo El Dominio Danzante Tab

205 views 6 this week
no commentswrite comment
1 2 3 4 5
3 more votes to show rating
add to favorites
launch autoscroll
font size
0
reset
how to read this tab
guitar tuner
Autoscroll
slow
fast
+/-
esc
set tempo
stop
Help us to improve Ultimate-Guitar.com Take our survey!
×
INTRO: 
d|-------------------------------|X8
A|-------------------------------|
F|----1/2----1/2~-----1/2--------|
C|----2/3----2/3~-----2/3--2-----|
G|----2/3----2/3~-----2/3--2-----|
D|--0-0/1--0-0/1~---0-0/1--0-3~--|

xxxD5 xx D5# xxxxxxD5xxxA5/A5#/A5/G5/Dm
SE CIERRA MI GARGANTA,
xxD5#/D5xxxxxxxxxxxxxxC5/A5#/A5/A5#/A5
POR EVITAR LA AMARGURA
D5#/D5xxxxxxxxxxxxxxxxxxxxA5/A5#/A5/G5/Dm
EL DISFRAZ DE BUEN GUIADOR,
xD5#/D5xxxxxxxxxxxxxxC5/A5#/A5/A5#/A5
TRATARE DE SACARTE
D5#/D5xxxxxxxxxxxxxxxxxxxxA5/A5#/A5/G5/Dm
ELEGANCIA DE AMBICION,
xxD5#/D5xxxxxxxxxxxxxxC5/A5#/A5/A5#/A5
TE PROCLAMA UN DOCTOR,
D5#/D5xxxxxxxxxxxxxxxxxxxxA5/A5#/A5/G5/Dm
EN EL REINO SUDACA,
xxD5#/D5xxxxxxxxxxxxxxC5/A5#/A5/A5#
TE CONSIDERAN INMENSO.

Dms D5# (*1)
LA DIFRENCIA ESTA EN EL PODER,
LA INTELIGENCIA EN LA IMPUNIDAD.

(*1) creo que es algo así:
xxxxxxxxxxxLA DIFERENCIAxxxxxxxxxxxESTA EN EL PODER....
d|--------------------------+-------------------------|
A|--------------------------+-------------------------|
F|-----------------------0--+----------------------0--|
C|-----------/3-------------+----------/3-------------|
G|--2-2-2-2-2/3-------------+-2-2-2-2-2/3-------------|
D|--0-0-0-0-0/1-------------+-0-0-0-0-0/1-------------|


LO QUE ARRUINAS NO IMPORTA, NI LA ESPERANZA VIVIENTE
EL DISCURSO ES DIARIAMENTE, SALUD Y BUENA ENSEÑANZA
BAJO EL DOMINIO DANZANTE, GIME EL PUEBLO HAMBRIENTO
HARTOS DE QUEMARSE EN EL INFIERNO PRESENTE.

LA DIFERENCIA ESTA EN EL PODER
LA INTELIGENCIA EN LA IMPUNIDAD.


A5 / Dm / F5 / E / A5# / DmxxxxxA5#/A5/ A5#/A5/A5#
DESPIERTA NO DUERMAS PATRIA MIA
A5 / Dm / F5 / E / A5# / DmxxxxxA5#/A5/ A5#/A5/A5#
DESPIERTA DERRIBA LAS FRONTERAS
A5 / Dm / F5 / E / A5# / DmxxxxxA5#/A5/ A5#/A5/A5#
COMO DEFENDER EL GRAN IDEAL
A5 / Dm / F5 / E / A5# / DmxxxxxA5#/A5/F5
EN LA HUELGA MISERABLE DE LA VIDA.

Solo Guitarra: 
d|-----------------------------------------------------------------------------------------------------
A|-----------------------------------------------------------------------------------------------------
F|-----------------------------------------------------------------------------------------------------
C|----9----10-------12--------14--------------------9----10-------12---10-10^9-7-9-7------7------------
G|--7----9-----9-10-----10-12------/12-14-15-14---7----9-----9-10--------------------10-9---10-9-5-5/7-|
D|-----------------------------------------------------------------------------------------------------

d|-----------------------------------------------------|
A|-----------------------------------------------------|
F|-----16-----17--------19--------21-------------------|
C|--14-----16-----16/17-----17/19------14-16-17-17^16--|
G|-----------------------------------------------------|
D|-----------------------------------------------------|

d|------19-----20--------22---20-20^19-17-19-----------------------|
A|--/17-----19-----19-20---------------------20-20^19-17----17-17~-|
F|-------------------------------------------------------19--------|
C|-----------------------------------------------------------------|
G|-----------------------------------------------------------------|
D|-----------------------------------------------------------------|

LO QUE ARRUINAS NO IMPORTA, NI LA ESPERANZA VIVIENTE
EL DISCURSO ES DIARIAMENTE, SALUD Y BUENA ENSEÑANZA
BAJO EL DOMINIO DANZANTE, GIME EL PUEBLO HAMBRIENTO
HARTOS DE QUEMARSE EN EL INFIERNO PRESENTE.

LA DIFERENCIA ESTA EN EL PODER
LA INTELIGENCIA EN LA IMPUNIDAD.

DESPIERTA NO DUERMAS PATRIA MIA
DESPIERTA DERRIBA LAS FRONTERAS
COMO DEFENDER EL GRAN IDEAL
EN LA HUELGA MISERABLE DE LA VIDA.

Fin Como intro.
Suggest correction
Give kudos to tab author, rate the tab!
1 2 3 4 5
comments
print report bad tab
guest
You may want to rate the tab now too:
select rating
Wanna post a correction for this tab? Suggest correction