Oops, an error
Loading. Please wait.

Ciegos Del Mundo Bass Tab

version 1
version 1

Whole song

Interactive

16 views 1 this week
no commentswrite comment
1 2 3 4 5
3 more votes to show rating
add to favorites
launch autoscroll
font size
0
reset
guitar tuner
Autoscroll
slow
fast
+/-
esc
set tempo
stop
Intro x 2

G:------------------------------------------
D:--2-------2-------2------3-2-------------
A:----2-3-5---2-3-5--2-3-5----5-2-1-0-----
E:------------------------------------------


Verso

G:------------------------------------------
D:----------------------------3------------
A:---------3-2-0----------2-3--------------   X 2
E:--000000--------000000-----------------


G:------------------------------------------
D:------------------------2----------------
A:---------3-2-0------------5-3------------   X 2
E:--000000--------000000-----------------


Estribillo

G:-----------------------------------------
D:-----------------------------------------
A:--22222--33333--55555--0-3-------------
E:-----------------------------------------

G:----------------------------------------
D:--------------------------5-4-----------
A:--22222--33333--55555-----------------
E:----------------------------------------


Verso   X 1
Estribillo   X 1
Intro   X 2


Solo de guitarra

G:-----------------------------------------
D:-----------------------------------------
A:--22222--33333--55555--0-3-------------
E:-----------------------------------------

G:-----------------------------------------
D:-------------------------22222---2------
A:--22222--33333--55555------------5-3-2-
E:-----------------------------------------

G:-----------------------------------------
D:-----------------------------------------
A:--22222--33333--55555--0-3-------------
E:-----------------------------------------

G:----------------------------------------
D:--------------------------5-4-----------
A:--22222--33333--55555-----------------
E:----------------------------------------


Verso   X 1


Estribillo y final

G:-----------------------------------------
D:-----------------------------------------
A:--22222--33333--55555--0-3-------------
E:-----------------------------------------

G:-----------------------------------------
D:-------------------------22222---2------
A:--22222--33333--55555------------5-3-2-
E:-----------------------------------------

G:-----------------------------------------
D:-----------------------------------------
A:--22222--33333--55555--0-3-------------
E:-----------------------------------------

G:----------------------------------------
D:--------------------------5-4-----------
A:--22222--33333--55555-----------------
E:----------------------------------------

G:------------------------------------------
D:----------------------------3------------
A:---------3-2-0----------2-3--------------      
E:--0-0-0---------0-0-0--------------------

G:------------------------------------------
D:----------------------------3-2-----------
A:---------3-2-0----------2-3--------------      
E:--0-0-0---------0-0-0--------------------


Eso es todo, como siempre AGUANTE MALON, saludos.
elpibetigre@
Suggest correction
Give kudos to tab author, rate the tab!
1 2 3 4 5
comments
print report bad tab
guest
You may want to rate the tab now too:
select rating
Wanna post a correction for this tab? Suggest correction