Oops, an error
Loading. Please wait.

Ciegos Del Mundo Tab

version 2
version 2

Whole song

Interactive

47 views 1 this week
no commentswrite comment
1 2 3 4 5
3 more votes to show rating
add to favorites
launch autoscroll
font size
0
reset
how to read this tab
guitar tuner
Autoscroll
slow
fast
+/-
esc
set tempo
stop
Help us to improve Ultimate-Guitar.com Take our survey!
×
Es una versión mejorada de las que ya estaban.

Acordes de 5ta

Intro:
|--------------------------------------------------|
|--------------------------------------------------|
|--9----------9---------9----------10-9------------| x2
|--9--9-10-12-9--10-9-7-9--9-10-12-10-9-12-10-9-7--|
|--7--9-10-12-7--10-9-7-7--9-10-12--8-7-12-10-9-7--|
|-----7--8-10-----8-7-5----7--8-10------10--8-7-5--|

Riff:
|----------------------------|-----------------------------|
|----------------------------|-----------------------------|
|--7/9---7/9---7/9-----------|-7/9---7/9---7/9---------10--|
|--7/9---7/9---7/9----10-9-7-|-7/9---7/9---7/9----9-10-10--|
|--5/7---5/7---5/7----10-9-7-|-5/7---5/7---5/7----9-10--8--|
|-----000---000---000--8-7-5-|----000---000---000-7--8-----|


Estrofas:
  [ch]E                                         [ch]C SI[/ch] LA[/ch]
|----------------------------------------------------
|----------------------------------------------------
|-9-999999-999999-999999-999999-999999-999999--------
|-9-999999-999999-999999-999999-999999-999999-10-9-7-
|-7-777777-777777-777777-777777-777777-777777-10-9-7-
|-0-000000-000000-000000-000000-000000-000000--8-7-5-
PM.....................................
  Vibran, claman su estirpe de guardian
  [ch]E                                         [ch]G[/ch] [ch]F#[/ch] FA[/ch]
-------------------------------------------------------|
-------------------------------------------------------|
--9-999999-999999-999999-999999-999999-999999-12-11-10-|
--9-999999-999999-999999-999999-999999-999999-12-11-10-|
--7-777777-777777-777777-777777-777777-777777-10--9--8-|
--0-000000-000000-000000-000000-000000-000000----------|
PM.....................................
  odian, juzgan, héroes del polvo vivaz

Mandan, turban, necios también en la gloria
tercos, torpes hasta en su propia disputa


[ch]B         [ch]C    [ch]D[/ch]     LA[/ch] DO[/ch]
  Rugiendo ser pobres o reyes
[ch]B          [ch]C      [ch]D[/ch]  SOL[/ch] FA#[/ch]
  soberbios como el frio verdugo

Riff

Gozan, rien en la total ignorancia
corren, desvelan en el delirio impaciente
Brota, inunda el azote de la historia
nacen, viven en la mental arrogancia


[ch]B          [ch]C   [ch]D[/ch]        LA[/ch] DO[/ch]
  Degüellan solo por el placer
[ch]B    [ch]C      [ch]D[/ch]   SOL[/ch] FA#[/ch]
  de oler el ajeno dolor


Intro

Solo Base:
   [ch]A           [ch]C            [ch]D          RE[/ch]          LA[/ch]     DO[/ch]
|---------------------------------------------------------------------
|---------------------------------------------------------------------
|---------------------------------------------------------------------
|--9------------10------------12----------12----------7------10-------
|--9------------10------------12----------12----------7------10-------
|--7-77777-7777--8-88888-8888-10-10101010-10-10101010-5-5555--8-8888--
PM   ..... ....    ..... ....    ........    ........   ....    ....

  [ch]B           [ch]C            [ch]D[/ch]          RE[/ch]          MI[/ch]
-------------------------------------------------------------------------------
-------------------------------------------------------------------------------
-------------------------------------------------------------------------------
--9------------10------------12----------12----------14-------14-12-10-9-9999--
--9------------10------------12----------12----------14-------14-12-10-9-9999--
--7-77777-7777--8-88888-8888-10-10101010-10-10101010-12-------12-10--8-7-7777--
PM  ..... ....    ..... ....    ........    ........                     ....

        [ch]C              [ch]D          RE          LA[/ch]     DO[/ch]
----------------------------------------------------------------
----------------------------------------------------------------
----------------------------------------------------------------
--9-7-9-10------10-9-10-12----------12----------7------10-------
--9-7-9-10------10-9-10-12----------12----------7------10-------
--7-5-7--8-8888--8-7--8-10-10101010-10-10101010-5-5555--8-8888--
PM         .....            .......    ........   ....    ....

  [ch]A           [ch]C              [ch]D[/ch]          SOL[/ch]  FA#[/ch]
----------------------------------------------------|
----------------------------------------------------|
-------------------------------------------12---11--|
--9------9-7-9-10------10-9-10-12----------12---11--|
--9------9-7-9-10------10-9-10-12----------10----9--|
--7-7777-7-5-7--8-8888--8-7--8-10-10101010----------|
PM  .....         ....            ........

Riff x2


Vibran, claman su estirpe de guardian
odian, juzgan, héroes del polvo vivaz
Gozan, rien en la total ignorancia
corren, desvelan en el delirio impaciente


[ch]B         [ch]C    [ch]D[/ch]     LA[/ch] DO[/ch]
  Rugiendo ser pobres o reyes
[ch]B          [ch]C         [ch]D     [ch]E[/ch]  MI[/ch] RE[/ch] DO[/ch]
  soberbios como el verdugo
[ch]B          [ch]C   [ch]D[/ch]        LA[/ch] DO[/ch]
  Degüellan solo por el placer
[ch]B    [ch]C      [ch]D[/ch]   SOL[/ch] FA#[/ch]
  de oler el ajeno dolor

|----------------------------|-----------------------------
|----------------------------|-----------------------------
|--7/9---7/9---7/9-----------|-7/9---7/9---7/9---------10--
|--7/9---7/9---7/9----10-9-7-|-7/9---7/9---7/9----9-10-10--
|--5/7---5/7---5/7----10-9-7-|-5/7---5/7---5/7----9-10--8--
|-----000---000---000--8-7-5-|----000---000---000-7--8-----


----------------------------|-------------------------------|
----------------------------|-------------------------------|
--7/9---7/9---7/9-----------|-7/9---7/9---7/9---------10-9--|
--7/9---7/9---7/9----10-9-7-|-7/9---7/9---7/9----9-10-10-9--|
--5/7---5/7---5/7----10-9-7-|-5/7---5/7---5/7----9-10--8-7--|
-----000---000---000--8-7-5-|----000---000---000-7--8-------|


                 V8
Hermética  Horcas  Logos  Rata Blanca

Freyre, Cba.
Suggest correction
Give kudos to tab author, rate the tab!
1 2 3 4 5
comments
print report bad tab
guest
You may want to rate the tab now too:
select rating
Wanna post a correction for this tab? Suggest correction