Oops, an error
Loading. Please wait.

Culto Siniestro Bass

version 1
version 1

Whole song

Interactive

by Malon
109 views 1 this week
no commentswrite comment
1 2 3 4 5
3 more votes to show rating
add to favorites
launch autoscroll
font size
0
reset
guitar tuner
×
Best way to learn
"Culto Siniestro"
Autoscroll
slow
fast
+/-
esc
set tempo
stop
tema: culto siniestro
banda: malon
album: espiritu combativo

Intro

G:--------------------------------------------------------------------------------
D:--------------------------------------------------------------------------------
A:----3--------------3-------------------5--3----------------3------------------
E: ------5-5555555-----3--5--5555555------------5555555--------3--5--5555555--

G:-----------------------------------------------------------
D:-----------------2----------------------------------------
A:--5--3--5--3--------5--3---------------------------------
E:---------------------------3-----0--5------3--6--3--6-5----


Verso 

G:----------------------------------------------------------------------------------------------
D:----------------------------------------------------------------------------------------------
A:----3---------------3--------------------5---3--------------3--------------------5--3--5--3--
E: ------5-5555555-----3--5--5555555------------5555555--------3--5--5555555-----------------


Estribillo:

G:----------------------------------------------------
D:--2-------------------------------------------------    Parte 1
A:------5--3-----------------------------------------
E:------------3-----0--6--55555555-------------------


G:-----------------------------------------------------
D:----------2------------------------------------------    Parte 2
A:----3---------5--3-----------------------------------
E:-----------------------3----0--6----3--6--3--6--5----


Verso x 1
Estribillo Parte 1 x 2


Puente

G:-----------------------------------------------------
D:-----------------------------------------------------
A:----------------------5-3-------------------6-----5-
E:-5555555---5555555------3--5555555---555---555---


G:----------------------------------------------------
D:----------------------------------------------------
A:----------------------5-3--------------666-555-----  X 2
E:-5555555---5555555------3--5555555---------------


G:-----------------------------------------------------
D:-----------------------------------------------------
A:----------------------5-3-------------------6-----5-
E:-5555555---5555555------3--5555555---555---555---


G:----------------------------------------------------
D:----------------------------------------------------
A:----------------------5-3--------------666-555-----  
E:-5555555---5555555------3--5555555---------------


G:-----------------------------------------------------------------------------------
D:----------------------------------------------------------------------------------
A:----------------------5-3-------------------6-----5------6------5-----6------5--3
E:-5555555---5555555------3--5555555---555---555---555---555---555---555-----


Solo de guitarra

Durante el solo alterna: A-C  (la - do).

Verso x 1

Estribillo parte 1  x 3


Final

G:-----------------------------------------------------
D:----------2------------------------------------------    
A:----3---------5--3-----------------------------------
E:-----------------------3--3--5--6--5----------------


Eso es todo, aguante MALON. elpibetigre@
Suggest correction
Give kudos to tab author, rate the tab!
1 2 3 4 5
comments
print report bad tab
guest
You may want to rate the tab now too:
select rating
Wanna post a correction for this tab? Suggest correction